» » »

Kutless, Shut Me Out Bass tabs (ver.2)

Artists:  A B C D E F G H I J K L M N O P Q R S T U V W X Y Z # 

Shut Me Out Bass tabs (ver.2)

Kutless Tabs
 Rating:
4/5 (4 votes)
Shut Me Out lessons Tabs too difficult? Try these video lessons and learn fast
                -------------------------------------------------------------------------------
			     Shut Me Out - Kutless
-------------------------------------------------------------------------------


Tuning: Db Ab Db Gb

/=slide up
\=slide down

This is my first tab so ya rate and tell me how it is XD

Intro
Gb|-----------------------------------|
Db|-----------------------------------| x2
Ab|--5-0------5-0------5-0----11111/3-|
Db|0----573-0----573-0----573---------|

Verse 1
Gb|---------------------------------------|
Db|---------------------------------------|
Ab|----3x16---------3x16------------------|
Db|0x16----5x16-0x32----5x16-0x8-222--333-|

Pre-Chorus
Gb|-----------------------------------------------------------|
Db|-----------------------------------------------------------|
Ab|----------------555-----------------------------3-let ring-|
Db|555-----------------------------555------------------------|

Chorus 1
Gb|--------------------------------------|
Db|--------------------------------------| x2
Ab|-----5-0------5-0------5-0----11111/3-|
Db|12\0----573-0----573-0----573---------|

Verse 2
Gb|---------------------------------------|
Db|---------------------------------------|
Ab|----3x16---------3x16------------------|
Db|0x16----5x16-0x32----5x16-0x8-222--333-|

Pre-Chorus
Gb|-----------------------------------------------------------|
Db|-----------------------------------------------------------|
Ab|----------------555-----------------------------3-let ring-|
Db|555-----------------------------555------------------------|

Chorus 2
Gb|-------------------------------------    ---------|
Db|-------------------------------------x2  ---------|
Ab|-----5-0------5-0------5-0----11111/3    ---3---3-|
Db|12\0----573-0----573-0----573--------    -00--00--|

Guitar Solo
Gb|----------------------------------------------------------|
Db|----------------------------------------------------------| tens
Ab|----0x8-----------------0x8-------------------------------| not zeros
Db|8x16---555777101010-8x16---555777101010888777330-let ring-| and ones

Chorus 3
Gb|-------------------------------------    --------------------|
Db|-------------------------------------x4  --------------------|
Ab|-----5-0------5-0------5-0----11111/3    ---3---3-5-let ring-|
Db|12\0----573-0----573-0----573--------    -00--00-------------|
            
Submit corrections

comments powered by Disqus
↑ Back to top | Kutless Bass for Shut Me Out. Lyrics for acoustic guitar and electric guitar. Tablatures and chords are parodies/interpretations of the original songs. You may use it for private study, scholarship, research or language learning purposes only