» » »

Kutless, Sea Of Faces Bass tabs (ver.2)

Artists:  A B C D E F G H I J K L M N O P Q R S T U V W X Y Z # 

Sea Of Faces Bass tabs (ver.2)

Kutless Tabs
 Rating:
4/5 (4 votes)
Sea Of Faces lessons Tabs too difficult? Try these video lessons and learn fast
1
                Verse1
(...Ten million...)
G----------------|
D----------------|
A-----6-------6--|
E-6-------3------|

Pre-Chorus1
G--------------------------------|
D--------------------------------|
A-8-8-----------6~-6-6-6-6-6-----|
E-------3-3------------------15--|

(Slide from 15 fret up to 6 fret in chorus)

Chorus (Play through twice)
G---------------------------------|
D---------------------------------|
A-----------------8-8-8-8-8-8-8-8-|
E-6-6-6-6-6-6-6-6-----------------|

G---------------------------------|
D---------------------------------|
A-6--6---6-6-6-6-6-------8---6--3-|
E-------------------3~-3----------|

Pre-Verse
G-------------------------|
D-8~---10--12~------------|
A-------------------------|
E--------------6~--8--10~-|

G----------------------------------|
D-8~--10--12~--12-13-12-10-------8-|
A----------------------------------|
E----------------------------------|

Verse2 (Play through twice)
G---------------------------------|
D---------------------------------|
A-----------------6-6-6-6-6-6-6-6-|
E-6-6-6-6-6-6-6-6-----------------|

G---------------------------------|
D---------------------------------|
A-----------------6-6-6-6-6-6-6-6-|
E-3-3-3-3-3-3-3-3-----------------|

Pre-Chorus2
G-------------------------------|
D-------------------------------|
A-8-8-----------6~--------------|
E-------3-3---------------------|

G--------------------------------|
D--------------------------------|
A-8-8-----------6~-6-6-6-6-6-----|
E-------3-3------------------15--|

Chorus2 (Same as first time)

Bridge
(..You would have...)
G------------------------------------|
D------------------------------------|
A------------------------------------|
E-15/3-3-3-3-3-3-3-3-6-6-6-6-6-6-6-6-|

G------------------------------------|
D------------------------------------|
A-----------------6-6-6-6-8---6-3----|
E-8-8-8-8-8-8-8-8--------------------|

Chorus3 (Play three time)

Outro
G------------------------------------|
D------------------------------------|
A-----------------3~-3---8----6-3----|
E-8-8-8-8-8-8-8-8------------------3-|

That's how I play it. Like everyone else tells you guys, listen to the song to get it. 
Enjoy and God Bless.
            
Submit corrections

comments powered by Disqus
↑ Back to top | Kutless Bass for Sea Of Faces. Lyrics for acoustic guitar and electric guitar. 1 Tablatures and chords are parodies/interpretations of the original songs. You may use it for private study, scholarship, research or language learning purposes only