» » »

Kutless, Passion Bass tabs (ver.2)

Artists:  A B C D E F G H I J K L M N O P Q R S T U V W X Y Z # 

Passion Bass tabs (ver.2)

Kutless Tabs
 Rating:
4/5 (4 votes)
Passion lessons Tabs too difficult? Try these video lessons and learn fast
1
                PASSION- Kutless


Verse:
E|-0--------2--------4--------4----6---4-4-2-----|
A|-----------------------------------------------|
D|-----------------------------------------------|
G|-----------------------------------------------| (x 2)
end of verse:
E|-0-------2----------------------|
A|-----------------4--------------|
D|--------------------------------|
G|--------------------------------|

Chorus:
E|-----------------------------------|
A|---------4-------------------------|
D|-6----------------2--------4-------|
G|-----------------------------------| (x 2)

2nd Verse:
E|-0-----0-0-1-2----2-2-3-4----6---4-4-2-4----6---4-4-2--------|
A|-----2------------4------------------------------------------|
D|-------------------------------------------------------------|
G|-------------------------------------------------------------| (x 2)
end of verse:
E|-0-----0-0-1-2----2-2-3-4---------------------|
A|-----2------------4----------4------4-4-------|
D|-----------------------------------6-------6--|
G|----------------------------------------------|

Bridge:
E|------------------------2-----|
A|-4--------------2-------------|
D|--------2---------------------|
G|------------------------------| (x 2)
            
Submit corrections

comments powered by Disqus
↑ Back to top | Kutless Bass for Passion. Lyrics for acoustic guitar and electric guitar. 1 Tablatures and chords are parodies/interpretations of the original songs. You may use it for private study, scholarship, research or language learning purposes only