>
 >
Endorama

Endorama Guitar Tabs

Kreator - Endorama chords, tabs, tablatures, lyrics

Guitar lessons | Add/correct | Request | Top 50 tabs Artists:  A B C D E F G H I J K L M N O P Q R S T U V W X Y Z 0-9

Endorama Guitar Tabs – Kreator

CD, Sheet music, Poster

Do you like Endorama? Share with your friends now
Bass TabsTabs

ENDORAMA
As recorded by Kreator
(From the 1999 Album ENDORAMA)

        

Words by Mille Petrozza Music by Mille Petrozza; Kreator
Arranged by Mille Petrozza

Gtr I (D G C F A D) - 'Mille Petrozza'
Gtr II (D G C F A D) - 'Gtr. II'
Gtr III (D G C F A D) - 'Pick scrape'

   Intro / Verse
    Q=182
   4/4
    Gtr I
    PM----|     PM----|   PM   PM|       PM----|     PM----|   PM   PM|
    E E E E E E E E   E E E  E E E E E   E E E E E E E E   E E E  E E E E E  6x
||------------------|------------------|-----------------|-------------------||
||o-----------------|------------------|-----------------|------------------o||
||----------9-9-----|------------------|---------9-9-----|-------10-----9-9--||
||------9-9-----9-9-|---7---10-----9-9-|-----9-9-----9-9-|---7---------------||
||o-7-7-------------|-8---8----8-8-----|-7-7-------------|-8---8----8-8-----o||
||------------------|------------------|-----------------|-------------------||


   Chorus
    E5                    B5 A5    G5                    A5 G5
    W             +H      Q   Q    W             +H      Q   Q
||--------------|----------------|-------------|-----------------|
||o-------------|----------------|-------------|-----------------|
||--------------|----------------|-------------|-----------------|
||--2-----------|-(2)-----9---7--|-5-----------|-(5)-----7---5---|
||o-2-----------|-(2)-----9---7--|-5-----------|-(5)-----7---5---|
||--0-----------|-(0)-----7---5--|-3-----------|-(3)-----5---3---|
|
|   Gtr II
|   Q  Q  Q  Q     Q   Q  Q   Q    Q  Q  Q  Q     Q   Q  Q   Q
||--------------|----------------|-------------|-----------------|
||o-------------|----------------|-------------|-----------------|
||--9--7--9--7--|--9---7--9--10--|-9--7--9--7--|--9---7--9--10---|
||--------------|----------------|-------------|-----------------|
||o-------------|----------------|-------------|-----------------|
||--------------|----------------|-------------|-----------------|


  A5                    G5 A5    E5                        D5
  W             +H      Q   Q    W             +H      +E  Q.
|-------------|----------------|-------------|--------------------||
|-------------|----------------|-------------|-------------------o||
|-------------|----------------|-------------|-------------7------||
|-7-----------|-(7)-----5---7--|-2-----------|-(2)-----(2)-7------||
|-7-----------|-(7)-----5---7--|-2-----------|-(2)-----(2)-5-----o||
|-5-----------|-(5)-----3---5--|-0-----------|-(0)-----(0)--------||
|
| Q  Q  Q  Q     Q   Q  Q   Q    Q  Q  Q  Q     Q   Q   Q     Q
|-------------|----------------|-------------|--------------------||
|-------------|----------------|-------------|-------------------o||
|-9--7--9--7--|--9---7--9--10--|-9--7--9--7--|--9---7---9-----7---||
|-------------|----------------|-------------|--------------------||
|-------------|----------------|-------------|-------------------o||
|-------------|----------------|-------------|--------------------||


   Verse
    E5                F5
    PM----|     PM----|   PM   PM|
    E E E E E E E E   E E E  E E E E E
||------------------|------------------|
||o-----------------|------------------|
||----------9-9-----|------------------|
||------9-9-----9-9-|---7---10-----9-9-|
||o-7-7-------------|-8---8----8-8-----|
||------------------|------------------|
|
|   W                 W
||------------------|------------------|
||o-----------------|------------------|
||------------------|------------------|
||--2---------------|-3----------------|
||o-2---------------|-3----------------|
||--0---------------|-1----------------|


                   1.,2.,3.
  E5                F5            G5
  PM----|     PM----|    PM   PM|
  E E E E E E E E   E  E E  E E E E E   4x
|-----------------|---------------------||
|-----------------|--------------------o||
|---------9-9-----|--------10-----9-9---||
|-----9-9-----9-9-|----7----------------||
|-7-7-------------|-8----8----8-8------o||
|-----------------|---------------------||
|
| W                 H.            Q     4x
|-----------------|---------------------||
|-----------------|--------------------o||
|-----------------|---------------------||
|-2---------------|-3-------------5-----||
|-2---------------|-3-------------5----o||
|-0---------------|-1-------------3-----||


  4.
  F5
  PM  PM   PM|
  E E E  E E E E E
|------------------|
|------------------|
|-------10-----9-9-|
|---7--------------|
|-8---8----8-8-----|
|------------------|
|
| W
|------------------|
|------------------|
|------------------|
|-3----------------|
|-3----------------|
|-1----------------|


   Chorus
    E5                    B5 A5    G5                    A5 G5
    W             +H      Q   Q    W             +H      Q   Q
||--------------|----------------|-------------|-----------------|
||o-------------|----------------|-------------|-----------------|
||--------------|----------------|-------------|-----------------|
||--2-----------|-(2)-----9---7--|-5-----------|-(5)-----7---5---|
||o-2-----------|-(2)-----9---7--|-5-----------|-(5)-----7---5---|
||--0-----------|-(0)-----7---5--|-3-----------|-(3)-----5---3---|
|
|   Gtr II
|   Q  Q  Q  Q     Q   Q  Q   Q    Q  Q  Q  Q     Q   Q  Q   Q
||--------------|----------------|-------------|-----------------|
||o-------------|----------------|-------------|-----------------|
||--9--7--9--7--|--9---7--9--10--|-9--7--9--7--|--9---7--9--10---|
||--------------|----------------|-------------|-----------------|
||o-------------|----------------|-------------|-----------------|
||--------------|----------------|-------------|-----------------|


  A5                    G5 A5    E5                        D5
  W             +H      Q   Q    W             +H      +E  Q.
|-------------|----------------|-------------|--------------------||
|-------------|----------------|-------------|-------------------o||
|-------------|----------------|-------------|-------------7------||
|-7-----------|-(7)-----5---7--|-2-----------|-(2)-----(2)-7------||
|-7-----------|-(7)-----5---7--|-2-----------|-(2)-----(2)-5-----o||
|-5-----------|-(5)-----3---5--|-0-----------|-(0)-----(0)--------||
|
| Q  Q  Q  Q     Q   Q  Q   Q    Q  Q  Q  Q     Q   Q   Q     Q
|-------------|----------------|-------------|--------------------||
|-------------|----------------|-------------|-------------------o||
|-9--7--9--7--|--9---7--9--10--|-9--7--9--7--|--9---7---9-----7---||
|-------------|----------------|-------------|--------------------||
|-------------|----------------|-------------|-------------------o||
|-------------|----------------|-------------|--------------------||


 Bridge
  F5                                    E5
  Q   E Q   Q.       Q   E Q   Q.       Q   E Q   Q.       Q   E Q   Q.
|------------------|------------------|------------------|------------------|
|-------0----------|-------0----------|-------0----------|-------0----------|
|-----0-----0------|-----0-----0------|-----0-----0------|-----0-----0------|
|-3----------------|-3----------------|-2----------------|-2----------------|
|------------------|------------------|------------------|------------------|
|------------------|------------------|------------------|------------------|
| W                  W                  W                  W
|
| E E E E E E  E E   E E E E E E  E E   E E E E E E  E E   E E E E E E  E E
|------------------|------------------|------------------|------------------|
|------------------|------------------|------------------|------------------|
|------------------|------------------|------------------|------------------|
|-3-3-3-3-3-3--3-3-|-3-3-3-3-3-3--3-3-|-2-2-2-2-2-2--2-2-|-2-2-2-2-2-2--2-2-|
|-3-3-3-3-3-3--3-3-|-3-3-3-3-3-3--3-3-|-2-2-2-2-2-2--2-2-|-2-2-2-2-2-2--2-2-|
|-1-1-1-1-1-1--1-1-|-1-1-1-1-1-1--1-1-|-0-0-0-0-0-0--0-0-|-0-0-0-0-0-0--0-0-|


  G5                                    F5
  Q   E Q   Q.       Q   E Q   Q.       Q   E Q   Q.       Q   E Q   Q.
|------------------|------------------|------------------|------------------|
|-------0----------|-------0----------|-------0----------|-------0----------|
|-----0-----0------|-----0-----0------|-----0-----2------|-----0-----2------|
|-0----------------|-0----------------|-3----------------|-3----------------|
|------------------|------------------|------------------|------------------|
|------------------|------------------|------------------|------------------|
| W                  W                  W                  W
|
| E E E E E E  E E   E E E E E E  E E   E E E E E E  E E   E E E E E E  E E
|------------------|------------------|------------------|------------------|
|------------------|------------------|------------------|------------------|
|------------------|------------------|------------------|------------------|
|-5-5-5-5-5-5--5-5-|-5-5-5-5-5-5--5-5-|-3-3-3-3-3-3--3-3-|-3-3-3-3-3-3--3-3-|
|-5-5-5-5-5-5--5-5-|-5-5-5-5-5-5--5-5-|-3-3-3-3-3-3--3-3-|-3-3-3-3-3-3--3-3-|
|-3-3-3-3-3-3--3-3-|-3-3-3-3-3-3--3-3-|-1-1-1-1-1-1--1-1-|-1-1-1-1-1-1--1-1-|


  A5                                    G5
  Q   E Q   Q.       Q   E Q   Q.       Q   E Q   Q.       Q   E Q   Q.
|------------------|------------------|------------------|------------------|
|-------0---1------|-------0---1------|-------0----------|-------0----------|
|------------------|-----2------------|-----------0------|-----------0------|
|-----2------------|------------------|-----0------------|-----0------------|
|-0----------------|-0----------------|------------------|------------------|
|------------------|------------------|-3----------------|-3----------------|
| W                  W                  W                  W
|
| E E E E E E  E E   E E E E E E  E E   E E E E E E  E E   E E E E E E  E E
|------------------|------------------|------------------|------------------|
|------------------|------------------|------------------|------------------|
|-2-2-2-2-2-2--2-2-|-2-2-2-2-2-2--2-2-|------------------|------------------|
|-2-2-2-2-2-2--2-2-|-2-2-2-2-2-2--2-2-|-5-5-5-5-5-5--5-5-|-5-5-5-5-5-5--5-5-|
|-0-0-0-0-0-0--0-0-|-0-0-0-0-0-0--0-0-|-5-5-5-5-5-5--5-5-|-5-5-5-5-5-5--5-5-|
|------------------|------------------|-3-3-3-3-3-3--3-3-|-3-3-3-3-3-3--3-3-|


  B5                                    A5
  Q   E Q   Q.       Q   E Q   Q.       Q   E Q   Q.       Q   E Q   Q.
|------------------|------------------|------------------|------------------|
|-------2---3------|-------2---3------|-------0---1------|-------0---1------|
|------------------|------------------|------------------|------------------|
|-----4------------|-----4------------|-----2------------|-----2------------|
|-2----------------|-2----------------|-0----------------|-0----------------|
|------------------|------------------|------------------|------------------|
| W                  W                  W                  W
|
| E E E E E E  E E   E E E E E E  E E   E E E E E E  E E   E E E E E E  E E
|------------------|------------------|------------------|------------------|
|------------------|------------------|------------------|------------------|
|------------------|------------------|------------------|------------------|
|-9-9-9-9-9-9--9-9-|-9-9-9-9-9-9--9-9-|-7-7-7-7-7-7--7-7-|-7-7-7-7-7-7--7-7-|
|-9-9-9-9-9-9--9-9-|-9-9-9-9-9-9--9-9-|-7-7-7-7-7-7--7-7-|-7-7-7-7-7-7--7-7-|
|-7-7-7-7-7-7--7-7-|-7-7-7-7-7-7--7-7-|-5-5-5-5-5-5--5-5-|-5-5-5-5-5-5--5-5-|


 Guitar solo
  F5
   \0.5____/
   a      +H   +H               +H.            Q
|----------------------------|---------------------|
|----------------------------|---------------------|
|-10-----(10)-(10)-----------|-(10)-----------12---|
|----------------------------|---------------------|
|----------------------------|---------------------|
|----------------------------|---------------------|
|
|  E       E    E  E E E E E     E  E E E E E  E E
|----------------------------|---------------------|
|----------------------------|---------------------|
|----------------------------|---------------------|
|--3-------3----3--3-3-3-3-3-|---3--3-3-3-3-3--3-3-|
|--3-------3----3--3-3-3-3-3-|---3--3-3-3-3-3--3-3-|
|--1-------1----1--1-1-1-1-1-|---1--1-1-1-1-1--1-1-|


  E5
                ~~~~~~~~~~
   Q.   Q     E Q     +W
|-------------------|-------------------|
|-------------------|-------------------|
|-12----9-----7-9---|-(9)---------------|
|-------------------|-------------------|
|-------------------|-------------------|
|-------------------|-------------------|
|
|  E  E E E E E E E    E  E E E E E E E
|-------------------|-------------------|
|-------------------|-------------------|
|-------------------|-------------------|
|--2--2-2-2-2-2-2-2-|--2--2-2-2-2-2-2-2-|
|--2--2-2-2-2-2-2-2-|--2--2-2-2-2-2-2-2-|
|--0--0-0-0-0-0-0-0-|--0--0-0-0-0-0-0-0-|


  G5
   W                  +H         Q    Q
|------------------|----------------------|
|------------------|------------10---12---|
|-12---------------|-(12)-----------------|
|------------------|----------------------|
|------------------|----------------------|
|------------------|----------------------|
|
|  E E E E E E E E     E  E E E  E E  E E
|------------------|----------------------|
|------------------|----------------------|
|------------------|----------------------|
|--5-5-5-5-5-5-5-5-|---5--5-5-5--5-5--5-5-|
|--5-5-5-5-5-5-5-5-|---5--5-5-5--5-5--5-5-|
|--3-3-3-3-3-3-3-3-|---3--3-3-3--3-3--3-3-|


  F5
   \0.5____/
   a      +W                 +W
|-------------------------|--------------------|
|-------------------------|--------------------|
|-10-----(10)-------------|-(10)---------------|
|-------------------------|--------------------|
|-------------------------|--------------------|
|-------------------------|--------------------|
|
|  E       E  E E E E E E     E  E E E E E E E
|-------------------------|--------------------|
|-------------------------|--------------------|
|-------------------------|--------------------|
|--3-------3--3-3-3-3-3-3-|---3--3-3-3-3-3-3-3-|
|--3-------3--3-3-3-3-3-3-|---3--3-3-3-3-3-3-3-|
|--1-------1--1-1-1-1-1-1-|---1--1-1-1-1-1-1-1-|


  A5
   ~~~~~~~~~~~~~~~~~~~~~~~
   W                  +H        Q   Q
|------------------|------------7---8---|
|-10---------------|-(10)---------------|
|------------------|--------------------|
|------------------|--------------------|
|------------------|--------------------|
|------------------|--------------------|
|
|  E E E E E E E E     E  E E E E E E E
|------------------|--------------------|
|------------------|--------------------|
|--2-2-2-2-2-2-2-2-|---2--2-2-2-2-2-2-2-|
|--2-2-2-2-2-2-2-2-|---2--2-2-2-2-2-2-2-|
|--0-0-0-0-0-0-0-0-|---0--0-0-0-0-0-0-0-|
|------------------|--------------------|


  G5
  Q.     Q.      Q     Q.     H       +E
|-8------7-----------|-7------------------|
|---------------10---|--------8-------(8)-|
|--------------------|--------------------|
|--------------------|--------------------|
|--------------------|--------------------|
|--------------------|--------------------|
|
| E  E E E  E E  E E   E  E E E E E E  E
|--------------------|--------------------|
|--------------------|--------------------|
|--------------------|--------------------|
|-5--5-5-5--5-5--5-5-|-5--5-5-5-5-5-5--5--|
|-5--5-5-5--5-5--5-5-|-5--5-5-5-5-5-5--5--|
|-3--3-3-3--3-3--3-3-|-3--3-3-3-3-3-3--3--|


  B5
  W                 +H        Q    Q
|-7---------------|-(7)-------9---10---|
|-----------------|--------------------|
|-----------------|--------------------|
|-----------------|--------------------|
|-----------------|--------------------|
|-----------------|--------------------|
|
| E E E E E E E E    E  E E E E E  E E
|-----------------|--------------------|
|-----------------|--------------------|
|-----------------|--------------------|
|-9-9-9-9-9-9-9-9-|--9--9-9-9-9-9--9-9-|
|-9-9-9-9-9-9-9-9-|--9--9-9-9-9-9--9-9-|
|-7-7-7-7-7-7-7-7-|--7--7-7-7-7-7--7-7-|


  A5
   Q.     Q.     Q     Q.     Q.      Q
|-10------8------7---|-8------7-----------|
|--------------------|---------------10---|
|--------------------|--------------------|
|--------------------|--------------------|
|--------------------|--------------------|
|--------------------|--------------------|
|
|  E  E E E  E E E E   E  E E E  E E  E E
|--------------------|--------------------|
|--------------------|--------------------|
|--------------------|--------------------|
|--7--7-7-7--7-7-7-7-|-7--7-7-7--7-7--7-7-|
|--7--7-7-7--7-7-7-7-|-7--7-7-7--7-7--7-7-|
|--5--5-5-5--5-5-5-5-|-5--5-5-5--5-5--5-5-|


 Verse
  >
                          PM----|     PM----|   PM   PM|
  W          +W           E E E E E E E E   E E E  E E E E E
|----------|------------|-----------------|------------------|
|----------|------------|-----------------|------------------|
|-9--------|-(9)--------|---------9-9-----|-------10-----9-9-|
|----------|------------|-----9-9-----9-9-|---7--------------|
|----------|------------|-7-7-------------|-8---8----8-8-----|
|----------|------------|-----------------|------------------|
|
|                         PM----|     PM----|   PM   PM|
| W           W           E E E E E E E E   E E E  E E E E E
|----------|------------|-----------------|------------------|
|----------|------------|-----------------|------------------|
|----------|------------|---------9-9-----|-------10-----9-9-|
|----------|------------|-----9-9-----9-9-|---7--------------|
|----------|------------|-7-7-------------|-8---8----8-8-----|
|----------|------------|-----------------|------------------|


                                                          1.,2.
    PM----|     PM----|   PM   PM|       PM----|     PM----|   PM   PM|
    E E E E E E E E   E E E  E E E E E   E E E E E E E E   E E E  E E E E E   3x
||------------------|------------------|-----------------|--------------------||
||o-----------------|------------------|-----------------|-------------------o||
||----------9-9-----|------------------|---------9-9-----|-------10-----9-9---||
||------9-9-----9-9-|---7---10-----9-9-|-----9-9-----9-9-|---7----------------||
||o-7-7-------------|-8---8----8-8-----|-7-7-------------|-8---8----8-8------o||
||------------------|------------------|-----------------|--------------------||
|
|   PM----|     PM----|   PM   PM|       PM----|     PM----|   PM   PM|
|   E E E E E E E E   E E E  E E E E E   E E E E E E E E   E E E  E E E E E   3x
||------------------|------------------|-----------------|--------------------||
||o-----------------|------------------|-----------------|-------------------o||
||----------9-9-----|------------------|---------9-9-----|-------10-----9-9---||
||------9-9-----9-9-|---7---10-----9-9-|-----9-9-----9-9-|---7----------------||
||o-7-7-------------|-8---8----8-8-----|-7-7-------------|-8---8----8-8------o||
||------------------|------------------|-----------------|--------------------||


  3.
  Gtr III
           TPTPTPTPTPTPTPTPTPTPTPTPTPTPTPTP
  H        T T T T T T T T T T T T T T T T
|------------------------------------------|
|------------------------------------------|
|------------------------------------------|
|----------xsxsxsxsxsxsxsxsxsxsxsxsxsxsxsx-|
|----------xsxsxsxsxsxsxsxsxsxsxsxsxsxsxsx-|
|----------xsxsxsxsxsxsxsxsxsxsxsxsxsxsxsx-|
|
| PM  PM   PM------|
| E E E  E E       E       E       E
|------------------------------------------|
|------------------------------------------|
|-------10-----------------9-------9-------|
|---7--------------------------------------|
|-8---8----8-------8-----------------------|
|------------------------------------------|


   Chorus
    E5                    B5 A5    G5                    A5 G5
    Gtr I
    W             +H      Q   Q    W             +H      Q   Q
||--------------|----------------|-------------|-----------------|
||o-------------|----------------|-------------|-----------------|
||--------------|----------------|-------------|-----------------|
||--2-----------|-(2)-----9---7--|-5-----------|-(5)-----7---5---|
||o-2-----------|-(2)-----9---7--|-5-----------|-(5)-----7---5---|
||--0-----------|-(0)-----7---5--|-3-----------|-(3)-----5---3---|
|
|   Gtr II
|   Q  Q  Q  Q     Q   Q  Q   Q    Q  Q  Q  Q     Q   Q  Q   Q
||--------------|----------------|-------------|-----------------|
||o-------------|----------------|-------------|-----------------|
||--9--7--9--7--|--9---7--9--10--|-9--7--9--7--|--9---7--9--10---|
||--------------|----------------|-------------|-----------------|
||o-------------|----------------|-------------|-----------------|
||--------------|----------------|-------------|-----------------|


  A5                    G5 A5    E5                        D5
  W             +H      Q   Q    W             +H      +E  Q.
|-------------|----------------|-------------|--------------------||
|-------------|----------------|-------------|-------------------o||
|-------------|----------------|-------------|-------------7------||
|-7-----------|-(7)-----5---7--|-2-----------|-(2)-----(2)-7------||
|-7-----------|-(7)-----5---7--|-2-----------|-(2)-----(2)-5-----o||
|-5-----------|-(5)-----3---5--|-0-----------|-(0)-----(0)--------||
|
| Q  Q  Q  Q     Q   Q  Q   Q    Q  Q  Q  Q     Q   Q   Q     Q
|-------------|----------------|-------------|--------------------||
|-------------|----------------|-------------|-------------------o||
|-9--7--9--7--|--9---7--9--10--|-9--7--9--7--|--9---7---9-----7---||
|-------------|----------------|-------------|--------------------||
|-------------|----------------|-------------|-------------------o||
|-------------|----------------|-------------|--------------------||


   Out-chorus
    F#5                     C#5 B5    A5                      B5  A5
     W              +H       Q   Q     W              +H       Q   Q
||----------------|-----------------|---------------|------------------|
||o---------------|-----------------|---------------|------------------|
||----------------|-----------------|---------------|------------------|
||---4------------|-(4)-----11---9--|--7------------|-(7)------9---7---|
||o--4------------|-(4)-----11---9--|--7------------|-(7)------9---7---|
||---2------------|-(2)------9---7--|--5------------|-(5)------7---5---|
|
|   Gtr II
|    Q  Q   Q  Q     Q   Q   Q   Q     Q  Q   Q  Q     Q   Q   Q   Q
||----------------|-----------------|---------------|------------------|
||o---------------|-----------------|---------------|------------------|
||--11--9--11--9--|-11---9--11--12--|-11--9--11--9--|-11---9--11--12---|
||----------------|-----------------|---------------|------------------|
||o---------------|-----------------|---------------|------------------|
||----------------|-----------------|---------------|------------------|


                                   1.
  B5                      A5  B5    F#5                         E5
   W              +H       Q   Q     W              +H      +E  Q.
|---------------|-----------------|---------------|--------------------||
|---------------|-----------------|---------------|-------------------o||
|---------------|-----------------|---------------|-------------9------||
|--9------------|-(9)------7---9--|--4------------|-(4)-----(4)-9------||
|--9------------|-(9)------7---9--|--4------------|-(4)-----(4)-7-----o||
|--7------------|-(7)------5---7--|--2------------|-(2)-----(2)--------||
|
|  Q  Q   Q  Q     Q   Q   Q   Q     Q  Q   Q  Q     Q   Q   Q     Q
|---------------|-----------------|---------------|--------------------||
|---------------|-----------------|---------------|-------------------o||
|-11--9--11--9--|-11---9--11--12--|-11--9--11--9--|-11---9--11-----9---||
|---------------|-----------------|---------------|--------------------||
|---------------|-----------------|---------------|-------------------o||
|---------------|-----------------|---------------|--------------------||


  2.
  F#5
   H     H          W
|-----------------|------*|
|-----------------|------*|
|-----------------|------*|
|--4\-------------|------*|
|--4\-------------|------*|
|--2\-------------|------*|
|
|  H     H          W
|-----------------|------*|
|-----------------|------*|
|-11\-------------|------*|
|-----------------|------*|
|-----------------|------*|
|-----------------|------*|



Duration Legend
---------------
W - whole; H - half; Q - quarter; E - 8th; S - 16th; T - 32nd; X - 64th; a - acciaccatura
+ - note tied to previous; . - note dotted; .. - note double dotted
Uncapitalized letters represent notes that are staccato (1/2 duration)
Irregular groupings are notated above the duration line
Duration letters will always appear directly above the note/fret number it represents the
duration for.  Duration letters with no fret number below them represent rests.  Multi-
bar rests are notated in the form Wxn, where n is the number of bars to rest for.  Low
melody durations appear below the staff

Tablature Legend
----------------
 h   - hammer-on
 p   - pull-off
 b   - bend
 pb  - pre-bend
 r   - bend release (if no number after the r, then release immediately)
 /\  - slide into or out of (from/to "nowhere")
 s   - legato slide
 S   - shift slide
 - natural harmonic
[n]  - artificial harmonic
n(n) - tapped harmonic
 ~   - vibrato
 tr  - trill
 T   - tap
 TP  - trem. picking
 PM  - palm muting
\n/  - tremolo bar dip; n = amount to dip
 \n  - tremolo bar down
 n/  - tremolo bar up
/n\  - tremolo bar inverted dip
 =   - hold bend; also acts as connecting device for hammers/pulls
 <> - volume swell (louder/softer)
 x   - on rhythm slash represents muted slash
 o   - on rhythm slash represents single note slash

Misc Legend
-----------
 |  - bar
||  - double bar
||o - repeat start
o|| - repeat end
*|  - double bar (ending)
 :  - bar (freetime)
 $  - Segno
 &  - Coda
Tempo markers -  = BPM(8/16=s8/s16), where s8 = swing 8ths, s16 = swing 16ths





Comments


Popular Kreator tabs & chords
Awakening Tabs
Awakening Of The Gods Tabs
Carrion Tabs
Flag Of Hate Tabs
Hidden Dictator Tabs
Love Us Or Hate Us Tabs
Nonconformist 1 Tabs
The Patriarch 1 Tabs
Tormentor Tabs
Voices Of The Dead Tabs


Song lyrics



↑ Back to top | Tablatures and chords are parodies/interpretations of the original songs. You may use it for private study, scholarship, research or language learning purposes only
© 2014 AZChords.com Contact us | Privacy policy | DMCA | Add/correct tabs | Request tabs | Top 50 tabs