» » »

Endorama Bass tabs (ver.1)

Artists:  A B C D E F G H I J K L M N O P Q R S T U V W X Y Z # 

Endorama Bass tabs (ver.1)

Kreator
Rating:
0/5 (0 votes)

Hard to play? Try these video lessons and learn fast.
                
ENDORAMA (Bassline)
As recorded by Kreator
(From the 1999 Album ENDORAMA)

	

Words by Mille Petrozza Music by Mille Petrozza; Kreator
Arranged by Mille Petrozza

Gtr I (D G C F) - 'Christian Giesler'

   Intro / Verse
    Q=182
   4/4
    Gtr I
    Q  Q  Q  Q    Q  Q  Q  Q    Q  Q  Q  Q    Q  Q  Q  Q   6x
||--------------|-------------|-------------|--------------||
||o-------------|-------------|-------------|-------------o||
||o-------------|-------------|-------------|-------------o||
||--0--0--0--0--|-0--0--0--0--|-0--0--0--0--|-0--0--0--0---||


   Chorus
    W          +H     Q  Q    W          +H     Q  Q
||-----------|--------------|----------|---------------|
||o----------|--------------|----------|---------------|
||o----------|--------------|----------|---------------|
||--0--------|-(0)----7--5--|-3--------|-(3)----5--3---|


  W          +H     Q  Q    W          +H     +E  Q.
|----------|--------------|----------|------------------||
|----------|--------------|----------|-----------------o||
|----------|--------------|----------|------------5----o||
|-5--------|-(5)----3--5--|-0--------|-(0)----(0)-------||


   Verse
                                                         1.,2.,3.
    E E E E E E E E   E E E E E E E E   E E E E E E E E   E E E E E E E E   4x
||------------------|-----------------|-----------------|-------------------||
||o-----------------|-----------------|-----------------|------------------o||
||o-----------------|-----------------|-----------------|------------------o||
||--0-0-0-0-0-0-0-0-|-1-1-1-1-1-1-1-1-|-0-0-0-0-0-0-0-0-|-1-1-1-1-1-1-3-3---||


  4.
  E E E E E E E E
|-----------------|
|-----------------|
|-----------------|
|-1-1-1-1-1-1-1-1-|


   Chorus
    W          +H     Q  Q    W          +H     Q  Q
||-----------|--------------|----------|---------------|
||o----------|--------------|----------|---------------|
||o----------|--------------|----------|---------------|
||--0--------|-(0)----7--5--|-3--------|-(3)----5--3---|


  W          +H     Q  Q    W          +H     +E  Q.
|----------|--------------|----------|------------------||
|----------|--------------|----------|-----------------o||
|----------|--------------|----------|------------5----o||
|-5--------|-(5)----3--5--|-0--------|-(0)----(0)-------||


   Bridge / Solo
    E E E E E E E E   E E E E E E E E   E E E E E E E E   E E E E E E E E
||------------------|-----------------|-----------------|------------------|
||o-----------------|-----------------|-----------------|------------------|
||o-----------------|-----------------|-----------------|------------------|
||--1-1-1-1-1-1-1-1-|-1-1-1-1-1-1-1-1-|-0-0-0-0-0-0-0-0-|-0-0-0-0-0-0-0-0--|


  E E E E E E E E   E E E E E E E E   E E E E E E E E   E E E E E E E E
|-----------------|-----------------|-----------------|-----------------|
|-----------------|-----------------|-----------------|-----------------|
|-----------------|-----------------|-----------------|-----------------|
|-3-3-3-3-3-3-3-3-|-3-3-3-3-3-3-3-3-|-1-1-1-1-1-1-1-1-|-1-1-1-1-1-1-1-1-|


  E E E E E E E E   E E E E E E E E   E E E E E E E E   E E E E E E E E
|-----------------|-----------------|-----------------|-----------------|
|-----------------|-----------------|-----------------|-----------------|
|-0-0-0-0-0-0-0-0-|-0-0-0-0-0-0-0-0-|-----------------|-----------------|
|-----------------|-----------------|-3-3-3-3-3-3-3-3-|-3-3-3-3-3-3-3-3-|


  E E E E E E E E   E E E E E E E E   E E E E E E E E   E E E E E E E E
|-----------------|-----------------|-----------------|------------------||
|-----------------|-----------------|-----------------|-----------------o||
|-----------------|-----------------|-----------------|-----------------o||
|-7-7-7-7-7-7-7-7-|-7-7-7-7-7-7-7-7-|-5-5-5-5-5-5-5-5-|-5-5-5-5-5-5-5-5--||


   Verse
    Q  Q  Q  Q    Q  Q  Q  Q    Q  Q  Q  Q    Q  Q  Q  Q    4x
||--------------|-------------|-------------|---------------||
||o-------------|-------------|-------------|--------------o||
||o-------------|-------------|-------------|--------------o||
||--0--0--0--0--|-0--0--0--0--|-0--0--0--0--|-0--0--0--0----||


   Chorus
    W          +H     Q  Q    W          +H     Q  Q
||-----------|--------------|----------|---------------|
||o----------|--------------|----------|---------------|
||o----------|--------------|----------|---------------|
||--0--------|-(0)----7--5--|-3--------|-(3)----5--3---|


  W          +H     Q  Q    W          +H     +E  Q.
|----------|--------------|----------|------------------||
|----------|--------------|----------|-----------------o||
|----------|--------------|----------|------------5----o||
|-5--------|-(5)----3--5--|-0--------|-(0)----(0)-------||


   Out-chorus
    W          +H     Q  Q    W          +H     Q  Q
||-----------|--------------|----------|---------------|
||o----------|--------------|----------|---------------|
||o----------|--------------|----------|---------------|
||--2--------|-(2)----9--7--|-5--------|-(5)----7--5---|


                           1.
  W          +H     Q  Q    W          +H     +E  Q.
|----------|--------------|----------|------------------||
|----------|--------------|----------|-----------------o||
|----------|--------------|----------|------------7----o||
|-7--------|-(7)----5--7--|-2--------|-(2)----(2)-------||


  2.
  H     H      W
|------------|------*|
|------------|------*|
|------------|------*|
|-2\---------|------*|



Duration Legend
---------------
W - whole; H - half; Q - quarter; E - 8th; S - 16th; T - 32nd; X - 64th; a - acciaccatura
+ - note tied to previous; . - note dotted; .. - note double dotted
Uncapitalized letters represent notes that are staccato (1/2 duration)
Irregular groupings are notated above the duration line
Duration letters will always appear directly above the note/fret number it represents the
duration for.  Duration letters with no fret number below them represent rests.  Multi-
bar rests are notated in the form Wxn, where n is the number of bars to rest for.  Low
melody durations appear below the staff

Tablature Legend
----------------
 h   - hammer-on
 p   - pull-off
 b   - bend
 pb  - pre-bend
 r   - bend release (if no number after the r, then release immediately)
 /\  - slide into or out of (from/to "nowhere")
 s   - legato slide
 S   - shift slide
 - natural harmonic
[n]  - artificial harmonic
n(n) - tapped harmonic
 ~   - vibrato
 tr  - trill
 T   - tap
 TP  - trem. picking
 PM  - palm muting
\n/  - tremolo bar dip; n = amount to dip
 \n  - tremolo bar down
 n/  - tremolo bar up
/n\  - tremolo bar inverted dip
 =   - hold bend; also acts as connecting device for hammers/pulls
 <> - volume swell (louder/softer)
 x   - on rhythm slash represents muted slash
 o   - on rhythm slash represents single note slash

Misc Legend
-----------
 |  - bar
||  - double bar
||o - repeat start
o|| - repeat end
*|  - double bar (ending)
 :  - bar (freetime)
 $  - Segno
 &  - Coda
Tempo markers -  = BPM(8/16=s8/s16), where s8 = swing 8ths, s16 = swing 16ths
            
Hard to play? Try these video lessons and learn fast. | Correct




comments powered by Disqus
↑ Back to top | Tablatures and chords are parodies/interpretations of the original songs. You may use it for private study, scholarship, research or language learning purposes only