>
 >
Bomb Threat 1

Bomb Threat 1 Guitar Tabs

Kreator - Bomb Threat 1 chords, tabs, tablatures, lyrics

Guitar lessons | Add/correct | Request | Top 50 tabs Artists:  A B C D E F G H I J K L M N O P Q R S T U V W X Y Z 0-9

Bomb Threat 1 Guitar Tabs – Kreator

CD, Sheet music, Poster

Do you like Bomb Threat 1? Share with your friends now
TabsTabs v2
Band:  Kreator

Copyright (c)  (GUN) (1999)
Version 1.0 - (13/08/06)



.  - palm mute           /  - slide up to
\  - slide down to       ~  - vibrato
h  - hammer on           b  - Bend
p  - pull off            Suffixes for bend
t  - tap                 f  - full bend    h - half bend
ph - pinched harmonic    q  - quarter bend t - tap bend
*  - see comment         ^  - Hold bend    r release bend
x  - Stuccatto           ~  - vibrato bend
,  - slight palm mute    () - ghost note, sustained note
"  - tremolo note        <> - harmonic
pb - pre bend

Tuning D G C F A D

|------------------|
|------------------|
|------------------|
|-3-3-3----3-3-3-3-|
|-1-1-1----1-1-1-1-|
|------------------|

   [----------PM-------------]
|-----------------------------|
|-----------------------------|
|-----------------------------|
|-----------------------------|
|-4-----------------------5---|
|-2-2-2-2-2-2-2-2-0-2-0-2-3-0-| Rpt

   [------PM-------]
|--------------------------------|
|--------------------------------|
|--------------------------------|
|-------------------3---3---3----|
|-4-----------------1p0-1p0-1p0--|
|-2-2-2-2-2-2-2-2-0--------------| 


 Verse

 [------------PM------------]
|-----------------------------|
|-----------------------------|
|-----------------------------|
|-3---3---3---3---4---5---5\3-|
|-1p0-1p0-1p0-1p0-2p0-3p0-3\1-|
|-----------------------------| Rpt 3 X

 [------------PM------------]
|-----------------------------|
|-----------------------------|
|-----------------------------|
|-3---3---3---3---6-6-6-6-6-6-|
|-1p0-1p0-1p0-1p0-4-4-4-4-4-4-|
|-----------------------------|


   [-----------PM-------------]
|-----------------------------|
|-----------------------------|
|-----------------------------|
|-----------------------------|
|-4-----------------------5---|
|-2-2-2-2-2-2-2-2-0-2-0-2-3-0-| Rpt 3 X

  [-------PM-----]
|------------------------|
|------------------------|
|------------------------|
|-----------------2-3----|
|-4---------------0-1-5--|
|-2-2-2-2-2-2-2-2-----3--|

 Rpt Verse


 [---------PM-----------]
|-----------------------------|
|-----------------------------|
|-----------------------------|
|-3---3---3---3---4---5---5\4-|
|-1p0-1p0-1p0-1p0-2p0-3p0-3\2-|
|-----------------------------|

 Mid 8

  [----------------------------PM-------------------------------]
|-----------------------------------------------------------------|
|-----------------------------------------------------------------|
|-----------------------------------------------------------------|
|-----------------------------------------------------------------|
|-2-2-2-2-5-5-5-5\4-4-4-4/7-7-7-7\5-5-5-5/9-9-9-9\7-7-7-7\5-5-5-5-|
|-0-0-0-0-3-3-3-3\2-2-2-2/5-5-5-5\3-3-3-3/7-7-7-7\5-5-5-5\3-3-3-3-| Rpt

 Siren effect

|------------|
|-12b---r----|
|------------|
|------------|
|------------|
|------------| Rpt


|-20b---r----|
|------------|
|------------|
|------------|
|------------|
|------------| Rpt

|-----------------------------------------------------------------|
|-----------------------------------------------------------------|
|-----------------------------------------------------------------|
|-2-2-2-2-5-5-5-5\4-4-4-4/7-7-7-7\5-5-5-5/9-9-9-9\7-7-7-7\5-5-5-5-|
|-0-0-0-0-3-3-3-3\2-2-2-2/5-5-5-5\3-3-3-3/7-7-7-7\5-5-5-5\3-3-3-3-|
|-----------------------------------------------------------------| Rpt

 Guitar 1
                        [PM]                         [PM]
[-------------------------------------------------------------|
[-------------------------------------------------------------|
[-------------------------------------------------------------|
[-------------------------------------------------------------|
[-2-------------------5-----4/5--------------------5-----4/5--|
[-0-------------------3-0-0-2/3--------------------3-0-0-2/3--|
[Guitar 2
[[PM]   h [PM]  h h            [PM]   h [PM]  
[-------------------------------------------------------------|
[-------------------------------------------------------------|
[-------------------0-----------------------------------------|
[-----2-3-----------0---------------2-3-----------------------|
[-----2-3-----0-2-3-----------------2-3-----------------------|
[-0-0-----0-0-------------------0-0-----0-0-5-4-3-------------|

 Guitar 1
                     [-----------PM----------]
[----------------------------------------------|
[----------------------------------------------|
[-2-3---------------0--------------------------|
[-2-3-2-3-2-2-2-2-3-0--------------------------|
[---------------------3-3-3-3-3-3-3-3-3-3-3-3--|
[---------------------1-1-1-1-1-1-1-1-1-1-1-1--|
[Guitar 2
[----------------------------------------------|
[----------------------------------------------|
[-------------------0----3p0-------------------|
[-------------------0----3p0-------------------|
[-----2-3-----0-2-3-------------2---2-1--------|
[-0-0-----0-0---------------------3-----2-1----|

 Rpt Mid 8

          [--PM--]
|------------------|
|------------------|
|------------------|
|-6---7---6666666--|
|-4-7-5-8-4444444--|
|---5---6----------| Rpt 


|-------------------|
|-------------------|
|-------------------|
|-8---9----8888888--|
|-6-9-7-10-6666666--|
|---7---8-----------| Rpt


|---------------------------|
|---------------------------|
|---------------------------|
|-10----11----101010101010--|
|-8--11-9--12-8-8-8-8-8-8---|
|----9-----10---------------| Rpt


|-----------------------------------------------------------------|
|-----------------------------------------------------------------|
|-----------------------------------------------------------------|
|-----------------------------------------------------------------|
|-4444----4444/5\4--4444----4444/5\4--4444----4444--4444--444444--|
|-2222----2222/3\2--2222----2222/3\2--2222----2222--2222--222222--|



END





Comments


Popular Kreator tabs & chords
Black Sunrise Bass Tabs
Betrayer 1 Tabs
Catholics Despot Tabs
Civilization Collapse Intro Tabs
Coma Of Souls Tabs
Extreme Agression Tabs
Reflection Tabs
Rippin Corpse Tabs
Servant In Heaven / King In Hell Tabs
Some Pain Will Last Tabs


Song lyrics



↑ Back to top | Tablatures and chords are parodies/interpretations of the original songs. You may use it for private study, scholarship, research or language learning purposes only
© 2014 AZChords.com Contact us | Privacy policy | DMCA | Add/correct tabs | Request tabs | Top 50 tabs