» » »

Crucial Bass tabs (ver.1)

Artists:  A B C D E F G H I J K L M N O P Q R S T U V W X Y Z # 

Crucial Bass tabs (ver.1)

K-Os
Rating:
5/5 (1 vote)

Hard to play? Try these video lessons and learn fast.
                Song Title:Crucial
Complete Song Bass Tab

Tune 1/2 step (1 semitone) down (Eb, Ab, C#, F#)

Verse ("This is an emergency..."):
-----------------------------------------------------------------------------|
44--44--44--4---22--22--22--2--00--00--22--2---------------------------------|
--44--44--44--4---22--22--22-2---00--00--22--2--2-4-0-2-2--2-4-0-2-2---------|
-----------------------------------------------------------------------------|

Chorus ("I don't wanna change the world..."):
-----------------------------------------------------------------------------|
4-------4-------2--------2------0-------2------------------------------------|
---4-------2-------2--------0------2---------2----2----2----2----------------|
-----------------------------------------------------------------------------|

Bridge ("I don't wanna let you down..."):
-----------------------------------------------------------------------------|
--------------------------------4--4----4--4---------------------------------|
5--5----5--5----2--2----2--2--------------------2--2----2--2-----------------|
-----------------------------------------------------------------------------|

During the guitar solo, play the Chorus bassline.

Outro:
-----------------------------------------------------------------------------|
4-4-4-4-4-4-4-4-4-4-4-4-4-4-4-4----------------------------------------------|
-----------------------------------------------------------------------------|
-----------------------------------------------------------------------------|
            
Hard to play? Try these video lessons and learn fast. | Correct




comments powered by Disqus
↑ Back to top | Tablatures and chords are parodies/interpretations of the original songs. You may use it for private study, scholarship, research or language learning purposes only