» » »

K-Os, Crucial Tabs (ver.1)

Artists:  A B C D E F G H I J K L M N O P Q R S T U V W X Y Z # 

Crucial Tabs (ver.1)

K-Os Tabs
 Rating:
4.2/5 (5 votes)
Crucial lessons Tabs too difficult? Try these video lessons and learn fast
                Crucial – Joyful Rebellion


This is a tab of a great song by k-os. This song is one of my favourites and i bothered 
that there was no tab. I’m quite sure this is correct. If you have any suggestions or 

Intro/verse guitar I(Part I) clean
e-8--8--8--8---|-8--8--8--8---|-6--6--8--8--|
B-8--8--8--8---|-8--8--8--8---|-6--6--8--8--|
G-8--8--8--8---|-8--8--8--8---|-6--6--8--8--|
D—-------------|—-------------|—------------|
A--------------|—-------------|—------------|
E--------------|—-------------|—------------|


e-----6-6-6-6--|-----6-6-6-6-|
B-6-6-6-6-6-6--|-6-6-6-6-6-6-|
G-6-6-6-6-6-6--|-6-6-6-6-6-6-| Repeat throughout the whole song
D—8-8-8-8-8-8--|-8-8-8-8-8-8-|
A-8-8-8-8-8-8--|-8-8-8-8-8-8-|
E-6-6-6-6-6-6--|-6-6-6-6-6-6-|


Guitar II (Part II) clean

e--------13----|--------13----|--------11----|-------11-----|
B----------13--|----------13--|----------11--|---------11---|
G------------13|------------13|------------12|-----------12-|
D—----15-------|-----15-------|-----13-------|----13--------|
A---15---------|---15---------|---13---------|--13----------|
E-13-----------|-13-----------|-11-----------|11------------|

e--------9-----|--------11----|-------8------|-------8-----|
B---------9----|----------11--|--------9-----|--------9----|
G----------10--|------------12|----10----10--|----10---10--|
D—---11--------|-----13-------|--10----------|--10---------|
A--11----------|---13---------|-8------------|-8-----------|
E-9------------|-11-----------|--------------|-------------|

Play this during the second part of the intro, the choruses and at the beginning of the bridge.

Bridge (play with a little bit overdrive)

e--------------|-------------|---------------|-------------|
B--------------|-------------|---------------|-------------|
G--------------|-------------|---------------|-------------|
D—-11----------|-8-----------|-3-------------|-10----------|
A--11----------|-8-----------|-3-------------|-10----------|
E--9-----------|-6-----------|-1-------------|-8-----------|

Just play the chords a couple of times, you’ll feel how long.

Solo (play with a little bit of overdrive)
The solo begins with part II
e----------------------|-------------------|---------------|
B-13-11----11----------|-13-11-----11----13|-----11-13-----|
G-------13-----11h12-10|--------13----10---|--13-----------|
D----------------------|-------------------|---------------|
A----------------------|-------------------|---------------|
E----------------------|-------------------|---------------|

e----------|------------|---13-15-16--15-13---------------|
B----11-13-|---11-13-11-|--13---------13----11------------|
G-13-------|13----------|-13----------13----11------------|
D—---------|------------|-------------------11------------|
A----------|------------|---------------------------------|
E----------|------------|---------------------------------|

e------13-15-13-11---------|-----------------|-------------|
B---11-------11---11----13-|---11-13----11-13|----11-13-11-|
G--11--------11---11----13-|-13------13------|-13----------|
D—11---------11---11----13-|-----------------|-------------|
A--------------------------|-----------------|-------------|
E--------------------------|-----------------|-------------|

Good luck my joyful rebellion
            
Submit corrections

comments powered by Disqus
↑ Back to top | K-Os Tabs for Crucial. Lyrics for acoustic guitar and electric guitar. Tablatures and chords are parodies/interpretations of the original songs. You may use it for private study, scholarship, research or language learning purposes only