» » »

Sarias Song Tabs (ver.1)

Artists:  A B C D E F G H I J K L M N O P Q R S T U V W X Y Z # 

Sarias Song Tabs (ver.1)

Koji Kondo
Rating:
5/5 (17 votes)

Hard to play? Try these video lessons and learn fast.
                E----5-7---5-7--5-7-/12-10--7-8-7-------------|
B--6-----6-----6------------------8-5--5-8-5--|
G-------------------------------------7-------|
D---------------------------------------------|
A---------------------------------------------|
E---------------------------------------------|

E----5-7--5-7--5-7-/12-10-----12--7----7-------|
B--6-----6----6----------12-13------8----8---5-|
G------------------------------------------7---|
D----------------------------------------------|
A----------------------------------------------|
E----------------------------------------------|

E-----------------------|--------------------------|
B-----------------------|--------------------------|
G-----------------------|--------------------------|
D-0-2-3--5-7-9--10-9-2--|--0-2-3--5-7-9--10-12-14--|
A-----------------------|--------------------------|
E-----------------------|--------------------------|

E-----------------------|---------------------------------|---------------|
B-----------------------|---------------------------------|---------------|
G-----------------------|---------------------------------|---------------|
D-0-2-3--5-7-9--10-9-2--|--2-0-3-2-5-3-7-5-9-7-10-9-12-10-|--14-15--12-14-|
A-----------------------|---------------------------------|---------------|
E-----------------------|---------------------------------|---------------|
Repeat that until your fingers fall off and then your done.
            
Hard to play? Try these video lessons and learn fast. | Correct




comments powered by Disqus
↑ Back to top | Tablatures and chords are parodies/interpretations of the original songs. You may use it for private study, scholarship, research or language learning purposes only