» » »

Kakariko Village Tabs (ver.3)

Artists:  A B C D E F G H I J K L M N O P Q R S T U V W X Y Z # 

Kakariko Village Tabs (ver.3)

Koji Kondo
Rating:
5/5 (1 vote)

Hard to play? Try these video lessons and learn fast.
                This tab only had Guitar two, I'll tab guitar one on a later date.


e|------------------------------------------------------1---------------------|
B|---------------3------------------------------------------------------------|
G|-----------3------3-------------0--3--0---------0--3-----3--0-------------2-|
D|-------3-------------3-------0-----------0-----------------------------3----|
A|---1-----------------------------------------3----------------------3-------|
D|-------------------------5---------------------------------------3----------|

e|-----------------------------------------------------------------------------|
B|-----------------------------------------------------------------------------|
G|-----------------------------------------------------------------------------|
D|--3--------------------------------------------------------------------------|
A|-----3-----------------------------------------------------------------------|
D|-----------------------------------------------------------------------------|
 ---------------------------------------Above X2-------------------------------|


e|---------------------------------------------------------------------------|
B|---------------------------------------------------------------------------|
G|---------0-----0--------------2-----2------------7----7------------7-----7-|
D|------------1-----1--------------3-----3------------8---8-------------9----|
A|-----1-------------------3--------------------8----------------10----------|
D|--1-------------------3--------------------8----------------9--------------|

e|------------------------------------------------------------------------------|
B|------------------------------------------------------------------------------|
G|--------------8------8------------2-----2----------3-----3----------3-----3---|
D|-9---------------10-----10-----------3-----3----3-----3-----3----3-----3-----3|
A|----------10-------------------3-------------1----------------1---------------|
D|------10--------------------3-------------------------------------------------|
                                REPEAT INTRO

e|---------------------------------------------------------------------------|
B|---------------------------------------------------------------------------|
G|---------0-----0--------------2-----2------------7----7------------7-----7-|
D|------------1-----1--------------3-----3------------8---8-------------9----|
A|-----1-------------------3--------------------8----------------10----------|
D|--1-------------------3--------------------8----------------9--------------|

e|---------------------------------------------------------------------------|
B|---------------------------------------------------------------------------|
G|--------------8------8------------2-----2-------------3-----3-----3--------|
D|-9---------------10-----10-----------3-----3-------3-----3-----3-----3-----|
A|----------10-------------------3---------------1---------------------------|
D|------10--------------------3----------------------------------------------|

e|---------------------------------------------------------------------------|
B|---------------------------------------------------------------------------|
G|-------0-----0------------0-----0------------------------------------------|
D|----------1-----1------------1-----1---------3--0--3--0---------3--0--3--0-|
A|----1------------------1------------------1------------------1-------------|
D|-1------------------1------------------0------------------0----------------|

e|---------------------------------------------------------------------------|
B|---------------------------------------------------------------------------|
G|--------0-----0-------------2-----2-------------3-----3----------1-----1---|
D|-----------1-----1-------------3-----3-------3-----3-----3-----3----3-----3|
A|----1--------------------3---------------1------------------1--------------|
D|-1--------------------3----------------------------------------------------|

e|---------------------------------------------------------------------------|
B|---------------------------------------------------------------------------|
G|--------0-----0-----------0-----0-------------------------------7------7---|
D|-----------1-----1-----------1-----1---------3--0--3--0-------------9-----9|
A|-----1-----------------1------------------1-----------------10-------------|
D|--1-----------------1------------------0-----------------9-----------------|

e|---------------------------------------------------------------------------|
B|---------------------------------------------------------------------------|
G|----------8------8------------2-----2--------------------------------------|
D|-------------10-----10-----------3-----3-----------------------------------|
A|------10-------------------3-----------------------------------------------|
D|--10--------------------3--------------------------------------------------|

Repeat as Many times as you please.
            
Hard to play? Try these video lessons and learn fast. | Correct




comments powered by Disqus
↑ Back to top | Tablatures and chords are parodies/interpretations of the original songs. You may use it for private study, scholarship, research or language learning purposes only