» » »

Klamydia, Pala Rauhaa Tabs (ver.2)

Artists:  A B C D E F G H I J K L M N O P Q R S T U V W X Y Z # 

Pala Rauhaa Tabs (ver.2)

Klamydia Tabs
 Rating:
4/5 (4 votes)
Pala Rauhaa lessons Tabs too difficult? Try these video lessons and learn fast
1
                Klamydia - Pala Rauhaa - Vire : E A D G B E

Intro
E-----------------------------------------------------------------------------|
B------5---------5------5----5------------------------------------------------|
G-------------------------------7-6-4-----------------------------------------|
D-7-6-7-76-7-6-7--76-6-7-6-7-----------7--------------------------------------|
A-----------------------------------------------------------------------------|
E-----------------------------------------------------------------------------|

E----------------------------------------------------------------------------|
B----------------------------------------------------------------------------|
G----------66666666----------------------------66666666-77777777-99999999----|
D-77777777-66666666-44444444-22222222-77777777-66666666-77777777-99999999----|
A-77777777-44444444-44444444-22222222-77777777-44444444-55555555-77777777----|
E-55555555----------22222222-00000000-55555555-------------------------------|
  xxxxxxxx xxxxxxxx xxxxxxxx xxxxxxxx xxxxxxxx xxxxxxxx xxxxxxxx xxxxxxxx
E----------------------------------------------------------------------------|
B----------------------------------------------------------------------------|
G-99-77-66-44----------------------------------------------------------------|
D-99-77-66-44--0000000000----------------------------------------------------|
A-77-55-44-22--0000000000----------------------------------------------------|
E--------------2222222222----------------------------------------------------|
               xxxxxxxxxx
Chorus
E---------------------3-0----------------------------------------------------|
B----------2222222222--------------------------------------------------------|
G-2-2------2222222222-------------7777777-99-77-66-44------------------------|
D-2-2-2-2--0000000000-----4444444-7777777-99-77-66-44------------------------|
A-0-0-2-2-----------------4444444-5555555-77-55-44-22------------------------|
E-----0-0-----------------2222222--------------------------------------------|

Solo
E---------12----------------------12----12-10-12-1012-10-9-10-9--------------|
B-10-9-10---10-9-10-9-55-10-9-9-10--9-10-----------------------12------------|
G----------------------------------------------------------------------------|
D----------------------------------------------------------------------------|
A----------------------------------------------------------------------------|
E----------------------------------------------------------------------------|

E--------14-12----------14-12-14-12-14-12-14-12-10-9-7-5---------------------|
B-10-9-10-----10-10-9-10-----------------------------------------------------|
G----------------------------------------------------------------------------|
D----------------------------------------------------------------------------|
A----------------------------------------------------------------------------|
E----------------------------------------------------------------------------|

ja kun päivä valkenee..
E----------------------------------------------------------------------------|
B----------------------------------------------------------------------------|
G-77777777-99999999-22222222----------77777777777----------------------------|
D-77777777-99999999-22222222-44444444-77777777777--9-77-66-44-2222222--------|
A-55555555-77777777-00000000-44444444-55555555555--7-55-44-22-2222222--------|
E----------------------------22222222-------------------------0000000--------|
                                                              xxxxxxx
Viimeisellä kertosäkeellä..
E----------2--2-2-2----------------------------------------------------------|
B-----------3--3-3-3---------------------------------------------------------|
G-2-2-----------------------77777777-99-77-66-44-----------------------------|
D-2-2-2-2------------444444-77777777-99-77-66-44-----------------------------|
A-0-0-2-2------------444444-55555555-77-55-44-22-----------------------------|
E-----0-0------------222222--------------------------------------------------|

E----------------------------------------------------------------------------|
B----------------------------------------------------------------------------|
G-99-77-66-44-22-------------------------------------------------------------|
D-99-77-66-44-22-------------------------------------------------------------|
A-77-55-44-22-00-------------------------------------------------------------|
E----------------------------------------------------------------------------|
            
Submit corrections

comments powered by Disqus
↑ Back to top | Klamydia Tabs for Pala Rauhaa. Lyrics for acoustic guitar and electric guitar. 1 Tablatures and chords are parodies/interpretations of the original songs. You may use it for private study, scholarship, research or language learning purposes only