>
 >
 >
Cold Blood

Cold Blood Guitar Tabs

Kix - Cold Blood chords, tabs, tablatures, lyrics

Guitar lessons | Add/correct | Request | Top 50 tabs Artists:  A B C D E F G H I J K L M N O P Q R S T U V W X Y Z 0-9

Cold Blood Guitar Tabs – Kix

CD, Sheet music, Poster

Do you like Cold Blood? Share with your friends now
ChordsTabsTabs v2Ukulele
#------------------------------------------------------------------------------##

                                   COLD BLOOD
                               As recorded by Kix
                       (From the 1988 Album BLOW MY FUSE)

Music by Donnie Purnell & Taylor Rhodes

Gtr I (Eb Ab Db Gb Bb Eb) - 'Rhythm Guitar'
Gtr II (Eb Ab Db Gb Bb Eb) - 'Lead Guitar'

 Intro
  Moderately Fast Rock Q=140
 4/4
  Gtr I
  H.      E E   +E  E q  q  E E   +E  E q  q  E E
|-------------|-----------------|-----------------|
|-------------|-----------------|-----------------|
|-------------|-----------------|-----------------|
|-----------5-|-(5)-5-5--5--x-5-|-(5)-5-5--5--x-5-|
|-----------5-|-(5)-5-5--5--x-5-|-(5)-5-5--5--x-5-|
|-----------3-|-(3)-3-3--3--x-3-|-(3)-3-3--3--x-3-|


  +E  E q  q  E E   +E  E q  q  E E
|-----------------|-------------------|
|-----------------|-------------------|
|-----------------|-------------------|
|-(5)-5-5--5--x-5-|-(5)-5-5--5--x-5---|
|-(5)-5-5--5--x-5-|-(5)-5-5--5--x-5---|
|-(3)-3-3--3--x-3-|-(3)-3-3--3--x-3---|


  +E  E q   q   E  E   +E   E q   q    E   E
|--------------------|-----------------------|
|--------------------|-----------------------|
|--------------------|---------------------5-|
|-(5)-5-5---5---x--5-|-(5)--5-5---5----x---5-|
|-(5)-5-5---5---x--5-|-(5)--5-5---5----x---3-|
|-(3)-3-3---3---x--3-|-(3)--3-3---3----x-----|
|
| Gtr II
|  E  E E E E E E  E    E   E E E E E +E   E
|--------------------|-----------------------|
|--------------------|-----------------------|
|-----3s2-0-2-3---/3-|-----/3s2-0-2-3-(3)/---|
|-----3s2-0-2-3---/3-|-----/3s2-0-2-3-(3)/---|
|--------------------|-----------------------|
|--------------------|-----------------------|


  +E      e  E  E  Q      E    E   +E     E q      q   E      E
|--------------------------------|-------------------------------|
|--------------------------------|-------------------------------|
|-(5)-----5-----x--3-------------|-------------------------------|
|-(5)-----5-----x--3-----------5-|-(5)----5-5------5---x------5--|
|-(3)-----3-----x--1-----------5-|-(5)----5-5------5---x------5--|
|------------------------------3-|-(3)----3-3------3---x------3--|
|
|                         ~~~~                     ~~~
|  E   a  E  E  E  E  E  +E  a E    E     E E a E +Q.     a   E
|--------------------------------|-------------------------------|
|--------------------------------|-------------------------------|
|-----14s15s14s12-14-15-(15)-----|----------3--------------------|
|-----14s15s14s12-14-15-(15)-----|--3b3.5-----3h5-(5)----(5)s14\-|
|----------------------------3s5-|--------5----------------------|
|--------------------------------|-------------------------------|


  +E  E q   q   E  E   +E   E q   q    E   E
|--------------------|-----------------------|
|--------------------|-----------------------|
|--------------------|---------------------5-|
|-(5)-5-5---5---x--5-|-(5)--5-5---5----x---5-|
|-(5)-5-5---5---x--5-|-(5)--5-5---5----x---3-|
|-(3)-3-3---3---x--3-|-(3)--3-3---3----x-----|
|
|  E  E E E E E E  E    E   E E E E E +E   E
|--------------------|-----------------------|
|--------------------|-----------------------|
|-----3s2-0-2-3---/3-|-----/3s2-0-2-3-(3)/---|
|-----3s2-0-2-3---/3-|-----/3s2-0-2-3-(3)/---|
|--------------------|-----------------------|
|--------------------|-----------------------|


  +E      e  E  E  Q      E    E   +E     E q      q   E  E
|--------------------------------|-----------------------------|
|--------------------------------|-----------------------------|
|-(5)-----5-----x--3-------------|-----------------------------|
|-(5)-----5-----x--3-----------5-|-(5)----5-5------5---x--5----|
|-(3)-----3-----x--1-----------5-|-(5)----5-5------5---x--5----|
|------------------------------3-|-(3)----3-3------3---x--3----|
|
|                         ~~~~                     ~~~
|  E   a  E  E  E  E  E  +E  a E    E     E E a E +Q.    +E
|--------------------------------|-----------------------------|
|--------------------------------|-----------------------------|
|-----14s15s14s12-14-15-(15)-----|--3b3.5---3------------------|
|-----14s15s14s12-14-15-(15)-3s5-|------------3h5-(5)----(5)\--|
|--------------------------------|--------5--------------------|
|--------------------------------|-----------------------------|


   Verse
                                                          1.,2.,3.
    +E  E q  q  E E   +E  E q  q  E E   +E  e E E Q  E E   +E  E q  q  E E   4x
||------------------|-----------------|------------------|-------------------||
||o-----------------|-----------------|------------------|------------------o||
||------------------|---------------5-|-(5)-5---x-3------|-------------------||
||--(5)-5-5--5--x-5-|-(5)-5-5--5--x-5-|-(5)-5---x-3----5-|-(5)-5-5--5--x-5---||
||o-(5)-5-5--5--x-5-|-(5)-5-5--5--x-3-|-(3)-3---x-1----5-|-(5)-5-5--5--x-5--o||
||--(3)-3-3--3--x-3-|-(3)-3-3--3--x---|----------------3-|-(3)-3-3--3--x-3---||


 Chorus
  4.
  +E  E q  e E E E      E  E  E E E  Q  E   Q  E  E E  Q.
|--------------3---||---------------------|-----------------|
|--------------3---||o-10-10-10-9---10--x-|-9--x-10---10----|
|------------------||---9--9--9-9----9--x-|-9--x--9----9----|
|-(5)-5-5--5-x-----||---7--7--7-7----7--x-|-9--x--9----9----|
|-(5)-5-5--5-x-----||o--------------------|-7--x------------|
|-(3)-3-3--3-x-----||---------------------|-----------------|


  Q  E E E     E E E   +Q   E E E E     +Q
|--------------------|------------------------||
|--------------------|-----------------------o||
|-2------------2---2-|-(2)------2-------------||
|-0------------0---0-|-(0)------0-------------||
|----3p0-3b3.5---3---|------3p0---3b3.5-(3)--o||
|--------------------|------------------------||


                                PM
  Q  q  E E E E   +Q   q  E E E E   Q  q  E E E E   +Q   q  E E E E
|---------------|-----------------|---------------|-----------------|
|-------------7-|-(7)--8--8-7-----|-------------7-|-(7)--8--8-7-----|
|-------------7-|-(7)--7--7-7-----|-------------7-|-(7)--7--7-7-----|
|-7--7--5-7---7-|-(7)--7--7-7-----|-7--7--5-7---7-|-(7)--7--7-7-----|
|-7--7--5-7---5-|-(5)--5--------0-|-7--7--5-7---5-|-(5)--5--------0-|
|-5-------------|-----------------|-5-------------|-----------------|


   E  E  E E E  Q  E   Q  E  E E  Q.     Q.   Q.   Q    +E  Q.   Q  Q
|--------------------|-----------------|--------------|----------------|
|-10-10-10-9---10--x-|-9--x-10---10----|--------------|----------------|
|--9--9--9-9----9--x-|-9--x--9----9----|-7---------7--|-(7)------7-----|
|--7--7--7-7----7--x-|-9--x--9----9----|-7----5----7--|-(7)-5----7--5--|
|--------------------|-7--x------------|-5----5----5--|-(5)-5----5--5--|
|--------------------|-----------------|------3-------|-----3-------3--|
|
| Gtr II
|  W                   W                 Q.   Q.   Q    +E  Q.   Q  Q
|--------------------|-----------------|--------------|----------------|
|--------------------|-----------------|-3----3----3--|-(3)-3----3--3--|
|--------------------|-----------------|-2----0----2--|-(2)-0----2--0--|
|--------------------|-----------------|-0----0----0--|-(0)-0----0--0--|
|--------------------|-----------------|--------------|----------------|
|--------------------|-----------------|------3-------|-----3-------3--|


 Pre-Verse
  +E  E q   q   E  E   +E   E q   q    E   E
|--------------------|-----------------------|
|--------------------|-----------------------|
|--------------------|---------------------5-|
|-(5)-5-5---5---x--5-|-(5)--5-5---5----x---5-|
|-(5)-5-5---5---x--5-|-(5)--5-5---5----x---3-|
|-(3)-3-3---3---x--3-|-(3)--3-3---3----x-----|
|
|  E  E E E E E E  E    E   E E E E E +E   E
|--------------------|-----------------------|
|--------------------|-----------------------|
|-----3s2-0-2-3---/3-|-----/3s2-0-2-3-(3)/---|
|-----3s2-0-2-3---/3-|-----/3s2-0-2-3-(3)/---|
|--------------------|-----------------------|
|--------------------|-----------------------|


  +E      e  E  E  Q      E    E   +E     E q      q   E      E
|--------------------------------|-------------------------------|
|--------------------------------|-------------------------------|
|-(5)-----5-----x--3-------------|-------------------------------|
|-(5)-----5-----x--3-----------5-|-(5)----5-5------5---x------5--|
|-(3)-----3-----x--1-----------5-|-(5)----5-5------5---x------5--|
|------------------------------3-|-(3)----3-3------3---x------3--|
|
|                         ~~~~                     ~~~
|  E   a  E  E  E  E  E  +E  a E    E     E E a E +Q.     a   E
|--------------------------------|-------------------------------|
|--------------------------------|-------------------------------|
|-----14s15s14s12-14-15-(15)-----|----------3--------------------|
|-----14s15s14s12-14-15-(15)-----|--3b3.5-----3h5-(5)----(5)s14\-|
|----------------------------3s5-|--------5----------------------|
|--------------------------------|-------------------------------|


  +E  E q   q   E  E   +E   E q   q    E   E
|--------------------|-----------------------|
|--------------------|-----------------------|
|--------------------|---------------------5-|
|-(5)-5-5---5---x--5-|-(5)--5-5---5----x---5-|
|-(5)-5-5---5---x--5-|-(5)--5-5---5----x---3-|
|-(3)-3-3---3---x--3-|-(3)--3-3---3----x-----|
|
|  E  E E E E E E  E    E   E E E E E +E   E
|--------------------|-----------------------|
|--------------------|-----------------------|
|-----3s2-0-2-3---/3-|-----/3s2-0-2-3-(3)/---|
|-----3s2-0-2-3---/3-|-----/3s2-0-2-3-(3)/---|
|--------------------|-----------------------|
|--------------------|-----------------------|


  +E      e  E  E  Q      E    E   +E     E q      q   E  E
|--------------------------------|-----------------------------|
|--------------------------------|-----------------------------|
|-(5)-----5-----x--3-------------|-----------------------------|
|-(5)-----5-----x--3-----------5-|-(5)----5-5------5---x--5----|
|-(3)-----3-----x--1-----------5-|-(5)----5-5------5---x--5----|
|------------------------------3-|-(3)----3-3------3---x--3----|
|
|                         ~~~~                     ~~~
|  E   a  E  E  E  E  E  +E  a E    E     E E a E +Q.    +E
|--------------------------------|-----------------------------|
|--------------------------------|-----------------------------|
|-----14s15s14s12-14-15-(15)-----|--3b3.5---3------------------|
|-----14s15s14s12-14-15-(15)-3s5-|------------3h5-(5)----(5)\--|
|--------------------------------|--------5--------------------|
|--------------------------------|-----------------------------|


   Verse 2
    +E  E q  q  E E   +E  E q  q   E E   +E  e E E Q   E E
||------------------|------------------|-------------------|
||o-----------------|------------------|-------------------|
||------------------|----------------5-|-(5)-5---x-3-------|
||--(5)-5-5--5--x-5-|-(5)-5-5--5---x-5-|-(5)-5---x-3-----5-|
||o-(5)-5-5--5--x-5-|-(5)-5-5--5---x-3-|-(3)-3---x-1-----5-|
||--(3)-3-3--3--x-3-|-(3)-3-3--3---x---|-----------------3-|
|
|    W                 H       E E E E   +E  E Q   E E Q
||------------------|------------------|-------------------|
||o-----------------|------------------|-------------------|
||------------------|------------------|-------0-------0---|
||------------------|------------------|-----2-------3-----|
||o-----------------|------------1-2-3-|-(3)-------1-------|
||------------------|------------------|-------------------|


  +E   E       q               q               E       E
|---------------------------------------------------------------||
|--------------------------------------------------------------o||
|---------------------------------------------------------------||
|-(5)--5-------5---------------5---------------x-------5--------||
|-(5)--5-------5---------------5---------------x-------5-------o||
|-(3)--3-------3---------------3---------------x-------3--------||
|
|  >
|      \0.25/  \0.25/  \0.25/  \0.25/  \0.25/  \0.25/  \0.25/
| +E  +E      +E      +E      +E      +E      +E      +E
|---------------------------------------------------------------||
|--------------------------------------------------------------o||
|-(0)-(0)-----(0)-----(0)-----(0)-----(0)-----(0)-----(0)-------||
|---------------------------------------------------------------||
|--------------------------------------------------------------o||
|---------------------------------------------------------------||


  Q.   E q  q    E  E q  q  E E
|--------------|----------------|
|--------------|----------------|
|--------------|--------------5-|
|-5----5-5--5--|-5--5-5--5--x-5-|
|-5----5-5--5--|-5--5-5--5--x-3-|
|-3----3-3--3--|-3--3-3--3--x---|
|
| W              H.         E E
|--------------|--------------3-|
|--------------|--------------3-|
|--------------|----------------|
|--------------|----------------|
|--------------|----------------|
|--------------|----------------|


  +E  e E    E  Q   E E   +E    E    q    q    E   E
|-----------------------|-----------------------------|
|-----------------------|-----------------------------|
|-(5)-5------x--3-------|-----------------------------|
|-(5)-5------x--3-----5-|-(5)---5----5----5----x---5--|
|-(3)-3------x--1-----5-|-(5)---5----5----5----x---5--|
|---------------------3-|-(3)---3----3----3----x---3--|
|
|                                         ~~~
| +E  E E   +E  E E E E    E   +S  S E E +Q   +Q
|-(3)-3---------3-------|-----------------------------|
|-(3)-3-----------6-5-3-|-----------------------------|
|-------5b7-(5)---------|--5b7r(5)p3---3-(3)--(3)/----|
|-----------------------|------------5----------------|
|-----------------------|-----------------------------|
|-----------------------|-----------------------------|


  +E  E q  q  E E   +E  E q  q   E E   +E  e E E Q   E E   +E  E q  q   E E
|-----------------|------------------|-------------------|------------------|
|-----------------|------------------|-------------------|------------------|
|-----------------|----------------5-|-(5)-5---x-3-------|------------------|
|-(5)-5-5--5--x-5-|-(5)-5-5--5---x-5-|-(5)-5---x-3-----5-|-(5)-5-5--5---x-5-|
|-(5)-5-5--5--x-5-|-(5)-5-5--5---x-3-|-(3)-3---x-1-----5-|-(5)-5-5--5---x-5-|
|-(3)-3-3--3--x-3-|-(3)-3-3--3---x---|-----------------3-|-(3)-3-3--3---x-3-|
|
|                                                                ~
|  W                 H       E E E E   +E  E Q   E E E E   +E  E Q  E E E E
|-----------------|------------------|-----------------3-|-(3)-3----3-3-----|
|-----------------|------------------|-----------------3-|-(3)-3-5--3-3-5-3-|
|-----------------|------------------|-------0-------0---|-------5------5-3-|
|-----------------|------------------|-----2-------3-----|------------------|
|-----------------|------------1-2-3-|-(3)-------1-------|------------------|
|-----------------|------------------|-------------------|------------------|


     E  E  E E E  Q  E   Q  E  E E  Q.
||---------------------|-----------------|
||o-10-10-10-9---10--x-|-9--x-10---10----|
||---9--9--9-9----9--x-|-9--x--9----9----|
||---7--7--7-7----7--x-|-9--x--9----9----|
||o--------------------|-7--x------------|
||---------------------|-----------------|


  Q  E E E     E E E   +Q   E E E E     +Q
|--------------------|-------------------------||
|--------------------|------------------------o||
|-2------------2---2-|-(2)------2--------------||
|-0------------0---0-|-(0)------0--------------||
|----3p0-3b3.5---3---|------3p0---3b3.5-(3)---o||
|--------------------|-------------------------||


                                PM                                PM
  Q  q  E E E E   +Q   q  E E E E   Q  q  E E E E   +Q   q  E E E E
|---------------|-----------------|---------------|-----------------|
|-------------7-|-(7)--8--8-7-----|-------------7-|-(7)--8--8-7-----|
|-------------7-|-(7)--7--7-7-----|-------------7-|-(7)--7--7-7-----|
|-7--7--5-7---7-|-(7)--7--7-7-----|-7--7--5-7---7-|-(7)--7--7-7-----|
|-7--7--5-7---5-|-(5)--5--------0-|-7--7--5-7---5-|-(5)--5--------0-|
|-5-------------|-----------------|-5-------------|-----------------|


   E  E  E E E  Q  E   Q  E  E E  Q.
|--------------------|-----------------|
|-10-10-10-9---10--x-|-9--x-10---10----|
|--9--9--9-9----9--x-|-9--x--9----9----|
|--7--7--7-7----7--x-|-9--x--9----9----|
|--------------------|-7--x------------|
|--------------------|-----------------|
|
| Gtr II
|  W                   W
|--------------------|-----------------|
|--------------------|-----------------|
|--------------------|-----------------|
|--------------------|-----------------|
|--------------------|-----------------|
|--------------------|-----------------|


   Q.      Q.      Q         +E    Q.    Q     E E
|-------------------------|------------------------|
|--3-------3-------3------|--(3)---3-----3-----3---|
|--2-------0-------2------|--(2)---0-----2-----0---|
|--0-------0-------0------|--(0)---0-----0-----0---|
|-------------------------|------------------------|
|----------3--------------|--------3-----------3-0-|
|
|                                        ~~~~~
|  Q.      Q.      Q         +E    Q.    H
|-------------------------|-------20----20b22------|
|-15------15------15------|-(15)-------------------|
|-17b19---17b19---17b19===|=(17)r------------------|
|-------------------------|------------------------|
|-------------------------|------------------------|
|-------------------------|------------------------|


 Breakdown
      PM  PM  PM|         PM
  +E  E E E E E E E   +E  E E E E  E E E
|-------------------|--------------------|
|-----------3-----3-|-(3)-------3--------|
|-------2---2-----2-|-(2)---2---2--------|
|-------2-----------|-------2------------|
|-------------------|--------------------|
|-(0)-0---0---0-0---|-----0---0---/3-2-0-|


      PM      PM|
  +E  E E E E E E E   +E  E E E E  E E E
|-------------------|----------------------|
|-----------3-----3-|-(3)-------3----------|
|-------2---2-----2-|-(2)---2---2----------|
|-------2-----------|-------2--------------|
|-------------------|----------------------|
|-(0)-0---0---0-0---|-----0---0---/3-2-0---|


      PM  PM  PM|         PM
  +E  E E E E E E E   +E  E E E E  E E E
|-------------------|--------------------|
|-----------3-----3-|-(3)-------3--------|
|-------2---2-----2-|-(2)---2---2--------|
|-------2-----------|-------2------------|
|-------------------|--------------------|
|-(0)-0---0---0-0---|-----0---0---/3-2-0-|
|
| Gtr II
|  W                   W
|-------------------|--------------------|
|-------------------|--------------------|
|-------------------|--------------------|
|-------------------|--------------------|
|-------------------|--------------------|
|-------------------|--------------------|


      PM
  +E  E E E E E E E   +E  E E E  +E  E E  E
|-------------------|--------------------------|
|-----------3-------|--------------------------|
|-------2---2-------|---------------------0----|
|-------2-----------|----------------3-4-------|
|-------------------|-----3-4-5--(5)-----------|
|-(0)-0---0---3-4-5-|-(5)----------------------|
|
|  H.           E E   +Q.     Q.       E  E
|-------------------|--------------------------|
|-------------------|---------3----------10b11-|
|-----------------2-|-(2)-----2----------------|
|-----------------2-|-(2)-----0----------------|
|-----------------0-|-(0)----------------------|
|-------------------|--------------------------|


 Guitar Solo
   +E   E     q            q         E   E       +E   E     q            q         E  E
|---------------------------------------------|-----------------------------------------|
|---------------------------------------------|-----------------------------------------|
|--(0)----------------------------------------|---------------------------------------5-|
|-------5-----5------------5---------x---5----|--(5)--5-----5------------5---------x--5-|
|-------5-----5------------5---------x---5----|--(5)--5-----5------------5---------x--3-|
|-------3-----3------------3---------x---3----|--(3)--3-----3------------3---------x----|
|
|  +e   e     E     +S  S  E  E     +e   E       +e   e     E     +S  S  E  E     +e  E
|---------------------------------------------|-----------------------------------------|
|-(10)-11b12-10b11r(10)p8-10-10b11-(10)-10b11-|-(10)-11b12-10b11r(10)p8-10-10b11-(10)---|
|---------------------------------------------|---------------------------------------7s|
|---------------------------------------------|-----------------------------------------|
|---------------------------------------------|-----------------------------------------|
|---------------------------------------------|-----------------------------------------|


  +E  e E E  Q         E  E           +E  E q   q   E  E
|-----------------------------------|------------------------|
|-----------------------------------|------------------------|
|-(5)-5---x--3----------------------|------------------------|
|-(5)-5---x--3------------5---------|-(5)-5-5---5---x--5-----|
|-(3)-3---x--1------------5---------|-(5)-5-5---5---x--5-----|
|-------------------------3---------|-(3)-3-3---3---x--3-----|
|
|  E  Q   E  E     +E  E  S     +S     E  E E Q   E E  E
|-----8----------------8------------|---------8--------------|
|---------8-10b11-(10)---10b11r(10)p|==8--------------10b11--|
|--9--------------------------------|-----7s9-----9s7--------|
|-----------------------------------|------------------------|
|-----------------------------------|------------------------|
|-----------------------------------|------------------------|


   +E   E     q            q         E  E   +E  E q     q   E E
|-----------------------------------------|-----------------------|
|-----------------------------------------|-----------------------|
|-----------------------------------------|-------------------5---|
|--(5)--5-----5------------5---------x--5-|-(5)-5-5-----5---x-5---|
|--(5)--5-----5------------5---------x--5-|-(5)-5-5-----5---x-3---|
|--(3)--3-----3------------3---------x--3-|-(3)-3-3-----3---x-----|
|
|  +E   e     E     +S  S  E  E     +e  E   +E  E S S E E E E S S
|---------------------------------------3-|-(3)-3-------------6s7s|
|-(10)-11b12-10b11r(10)p8-10-10b11-(10)-3-|-(3)-3-5p3---5-3-------|
|-----------------------------------------|-------5p3---5-3---6s7s|
|-----------------------------------------|-----------5-----5-----|
|-----------------------------------------|-----------------------|
|-----------------------------------------|-----------------------|


  +E  e E E   Q   E E     +E  E q     q       E   E
|-----------------------|----------------------------|
|-----------------------|----------------------------|
|-(5)-5---x---3---------|----------------------------|
|-(5)-5---x---3-----5---|-(5)-5-5-----5-------x---5--|
|-(3)-3---x---1-----5---|-(5)-5-5-----5-------x---5--|
|-------------------3---|-(3)-3-3-----3-------x---3--|
|
|                                                 ~
|  Q.     S S E E E E     +E  e E S S S S S S S S E
|--6------6s7s6-5-3-----|-------3--------------------|
|-----------------------|-----3---6p3---3------------|
|--6------6s7s6-5-4-5b7-|-(5)---------6---6s5p3---3--|
|-----------------------|-----------------------5----|
|-----------------------|----------------------------|
|-----------------------|----------------------------|


  E E  q        q    E E   +E   E  q       q         E   E
|------------------------|-------------------------------------|
|------------------------|-------------------------------------|
|------------------------|-------------------------------5-----|
|-5-5--5--------5----x-5-|-(5)--5--5-------5---------x---5-----|
|-5-5--5--------5----x-5-|-(5)--5--5-------5---------x---3-----|
|-3-3--3--------3----x-3-|-(3)--3--3-------3---------x---------|
|
| ~
| Q    E  S  S  E  Q   E   +E   E  e S  S  E  E     +E   E
|------------------------|-------------------------------------|
|-----------15-15--------|--------15-x-15-15-17b18-(17)-17b18==|
|------0--x-15-15--------|--------15-x-15-15-17b18-(17)-17b18==|
|-5---(5)-x--------------|-------------------------------------|
|------------------------|-------------------------------------|
|-----------------15s==3-|-(3)s13------------------------------|


   +E   e   E       E  Q          E  E       +E   E  q           q           E  E
|-----------------------------------------|------------------------------------------|
|-----------------------------------------|------------------------------------------|
|--(5)--5-----------x--3------------------|------------------------------------------|
|--(5)--5-----------x--3-------------5----|--(5)--5--5-----------5-----------x--5----|
|--(3)--3-----------x--1-------------5----|--(5)--5--5-----------5-----------x--5----|
|------------------------------------3----|--(3)--3--3-----------3-----------x--3----|
|
|  +E   E   E       E  E       E  E  E       +E   e  S  S  S  S  S  S  S  S  E  E
|------17--17------17-17------17----------|------15-18p15----15----------------------|
|-(17)-17r-17b17.5-17-17b17.5-17-15-18b20-|-(18)----------18----18p15----15----17b18-|
|-(17)-----17b18---17-17b18---17-15-------|---------------------------17----15-------|
|-----------------------------------------|------------------------------------------|
|-----------------------------------------|------------------------------------------|
|-----------------------------------------|------------------------------------------|


    E   E     q             q         E   E    +E   E     q             q         E   E
|-------------------------------------------|----------------------------------------------|
|-------------------------------------------|----------------------------------------------|
|-------------------------------------------|-----------------------------------------5----|
|---5---5-----5-------------5---------x---5-|--(5)--5-----5-------------5---------x---5----|
|---5---5-----5-------------5---------x---5-|--(5)--5-----5-------------5---------x---3----|
|---3---3-----3-------------3---------x---3-|--(3)--3-----3-------------3---------x--------|
|
|  +E   e     E     +S   S  e  E     +e   E    +E   e     E     +S   S  e  E     +e   E
|----------------------------------------17-|-(17)-17b18-17b18r(17)p15-17-17b18-(17)-18b20-|
|-(17)-17b18-17b18r(17)p15-17-17b18-(17)----|----------------------------------------------|
|-------------------------------------------|----------------------------------------------|
|-------------------------------------------|----------------------------------------------|
|-------------------------------------------|----------------------------------------------|
|-------------------------------------------|----------------------------------------------|


   +E   e  E     E     Q           E     E      +E     E     q           E    E E E
|---------------------------------------------|-------------------------------------|
|---------------------------------------------|-------------------------------------|
|--(5)--5--------x-----3----------------------|-------------------------------------|
|--(5)--5--------x-----3-----------------5----|-(5)----5-----5----------------------|
|--(3)--3--------x-----1-----------------5----|-(5)----5-----5----------------------|
|----------------------------------------3----|-(3)----3-----3-----------3----2-3-4-|
|
|                                                                        ~~~~~
|  +E   e  S  S  S  S  S  S  S  S  S  S  S  S    S  S  S  S  S  S  S  S  H
|-(18)-18-18p15-------15-------------15-------|-------------------------------------|
|---------------18p15----18p15----15-------15-|-15s14-------------------18b20-------|
|------------------------------18-------17----|-------17p15-18p15----15-------------|
|---------------------------------------------|-------------------17----------------|
|---------------------------------------------|-------------------------------------|
|---------------------------------------------|-------------------------------------|


                                         2/4
  W          +E  S S H.        W          +E  E     E E
|----------|-----------------|----------|-------------------|
|----------|-----5-5-5-------|-3--------|-(3)---------------|
|-2--------|-(2)-4-4-4-------|-2--------|-(2)---------------|
|-2--------|-(2)-2-2-2-------|-0--------|-(0)---------------|
|-0--------|-(0)-----2-------|-0--------|-(0)-3b3.5---3b3.5-|
|----------|-----------------|----------|-------------------|


 4/4
     PM|   PM   PM|     PM|    PM  PM|
   E E E E E  E E E   E E E  E E E E E   H    H      Q  Q  Q  Q
|-------------------|------------------|-----------|--------------|
|-10-----9---10-----|-9-----10---9-----|-----------|--------------|
|--9-----9----9-----|-9------9---9-----|-7----7----|-7--7--7--7---|
|-------------------|-9------9---9-----|-7----7----|-7--7--7--7---|
|----0-0---0----0-0-|---7-7----7---5-5-|-5----5----|-5--5--5--5---|
|-------------------|------------------|-----------|--------------|


                                PM                                PM
  Q  q  E E E E   +Q   q  E E E E   Q  q  E E E E   +Q   q  E E E E
|---------------|-----------------|---------------|-----------------|
|-------------7-|-(7)--8--8-7-----|-------------7-|-(7)--8--8-7-----|
|-------------7-|-(7)--7--7-7-----|-------------7-|-(7)--7--7-7-----|
|-7--7--5-7---7-|-(7)--7--7-7-----|-7--7--5-7---7-|-(7)--7--7-7-----|
|-7--7--5-7---5-|-(5)--5--------0-|-7--7--5-7---5-|-(5)--5--------0-|
|-5-------------|-----------------|-5-------------|-----------------|


   E  E  E E E  Q  E   Q  E  E E  Q.
|--------------------|-----------------|
|-10-10-10-9---10--x-|-9--x-10---10----|
|--9--9--9-9----9--x-|-9--x--9----9----|
|--7--7--7-7----7--x-|-9--x--9----9----|
|--------------------|-7--x------------|
|--------------------|-----------------|
|
| Gtr II
|  W                   W
|--------------------|-----------------|
|--------------------|-----------------|
|--------------------|-----------------|
|--------------------|-----------------|
|--------------------|-----------------|
|--------------------|-----------------|


   |-----3------|    |-----3-----|    |-----3-----|     |----3----|
   Q       Q    Q    Q     Q     Q    Q     Q     Q     Q     Q   Q
|----------------------------------|----------------------------------|
|--3-------3----3----3-----3-----3-|--3-----3-----3-----3-----3---3---|
|--2-------2----2----2-----2-----2-|--2-----2-----2-----0-----2---2---|
|--0-------0----0----0-----0-----0-|--0-----0-----0-----0-----0---0---|
|----------------------------------|----------------------------------|
|----------------------------------|--------------------3-------------|
|
|                                                             ~~
|  |-----3------|    |-----3-----|    |-----3-----|     |----3----|
|  Q       Q    Q    Q     Q     Q    Q     Q     Q     Q     Q  +Q
|---------17---17---17----17----17-|-------------------20b22-20-(20)--|
|-17b19==(17)-(17)r-17b19-17b19-17-|-20b22-20b22-20b22----------------|
|----------------------------------|----------------------------------|
|----------------------------------|----------------------------------|
|----------------------------------|----------------------------------|
|----------------------------------|----------------------------------|


   E  E  E E E  Q  E   Q  E  E E  Q.
|--------------------|-----------------|
|-10-10-10-9---10--x-|-9--x-10---10----|
|--9--9--9-9----9--x-|-9--x--9----9----|
|--7--7--7-7----7--x-|-9--x--9----9----|
|--------------------|-7--x------------|
|--------------------|-----------------|


  Q  E E E     E E E   +Q   E E E E     +Q
|--------------------|-----------------------|
|--------------------|-----------------------|
|-2------------2---2-|-(2)------2------------|
|-0------------0---0-|-(0)------0------------|
|----3p0-3b3.5---3---|------3p0---3b3.5-(3)--|
|--------------------|-----------------------|


   E  E  E E E  Q  E   Q  E  E E  Q.
|--------------------|-----------------|
|-10-10-10-9---10--x-|-9--x-10---10----|
|--9--9--9-9----9--x-|-9--x--9----9----|
|--7--7--7-7----7--x-|-9--x--9----9----|
|--------------------|-7--x------------|
|--------------------|-----------------|
|
| Gtr II
|  W                   W
|--------------------|-----------------|
|--------------------|-----------------|
|--------------------|-----------------|
|--------------------|-----------------|
|--------------------|-----------------|
|--------------------|-----------------|


  Q  E E E       E E E     +Q      E E E   E     +Q
|------------------------|---------------------------------|
|------------------------|---------------------------------|
|-2--------------2---2---|-(2)---------2-------------------|
|-0--------------0---0---|-(0)---------0-------------------|
|----3p0-3b3.5-----3-----|---------3p0-----3b3.5-(3)-------|
|------------------------|---------------------------------|
|
| Q  E E S     S E E E     +E  +E  e E S S E      E  a  E
|-5--5-5---------5---7b9-|-(7)-(7)-7-7-----5---------------|
|-5--5-5-5h====7---5-----|-------------5h7--------5--8s10--|
|------------------------|---------------------------------|
|------------------------|---------------------------------|
|------------------------|---------------------------------|
|------------------------|---------------------------------|


    E   E  E E E  Q  E     Q   E  E E  Q.
|----------------------|--------------------|
|--10--10-10-9---10--x-|---9---x-10---10----|
|---9---9--9-9----9--x-|---9---x--9----9----|
|---7---7--7-7----7--x-|---9---x--9----9----|
|----------------------|---7---x------------|
|----------------------|--------------------|
|
|   >
|   ~~~~~~~~~~~~~~~~~~~~~~~~~~~~~~~~~~~~~~~~~
|  +W                     +W
|----------------------|--------------------|
|-(10)-----------------|-(10)---------------|
|----------------------|--------------------|
|----------------------|--------------------|
|----------------------|--------------------|
|----------------------|--------------------|


    Q   E E E     E E E    +Q   E E E E     +Q
|-----------------------|------------------------|
|-----------------------|------------------------|
|---2-------------2---2-|--(2)------2------------|
|---0-------------0---0-|--(0)------0------------|
|-------3p0-3b3.5---3---|-------3p0---3b3.5-(3)--|
|-----------------------|------------------------|
|
|~~~~~~~~~~~~~~~~~~~~~~~~~~~~~~
|  +W                      +W
|-----------------------|------------------------|
|-(10)------------------|-(10)-------------------|
|-----------------------|------------------------|
|-----------------------|------------------------|
|-----------------------|------------------------|
|-----------------------|------------------------|


   E  E  E E E  Q  E   Q  E  E E  Q.
|--------------------|-----------------|
|-10-10-10-9---10--x-|-9--x-10---10----|
|--9--9--9-9----9--x-|-9--x--9----9----|
|--7--7--7-7----7--x-|-9--x--9----9----|
|--------------------|-7--x------------|
|--------------------|-----------------|
|
|  W                   W
|--------------------|-----------------|
|--------------------|-----------------|
|--------------------|-----------------|
|--------------------|-----------------|
|--------------------|-----------------|
|--------------------|-----------------|


  Q  E E     E      E  E E     +Q      E E      E  E     +Q
|----------------------------|------------------------------------|
|----------------------------|------------------------------------|
|-2-----------------2----2---|-(2)--------------2-----------------|
|-0-----------------0----0---|-(0)--------------0-----------------|
|----3p0-----3b3.5-----3-----|---------3p0---------3b3.5-(3)------|
|----------------------------|------------------------------------|
|
| Q  E E    +E     +E  E E     +E  +E  E E     +Q        +E  +E
|----5-----------------5-----|---------5-8b8.5-(8)-------(8)-(8)\-|
|----5-7pb9r(7)b8--(7)-5-7b8-|-(7)-(7)-5-7b7.5-(7)-------(7)-(7)\-|
|------7pb8r(7)b8--(7)---7b8-|-(7)-(7)----------------------------|
|----------------------------|------------------------------------|
|----------------------------|------------------------------------|
|----------------------------|------------------------------------|


                                         H.=H
     PM|   PM   PM|     PM|    PM  PM
   E E E E E  E E E   E E E  E E E E S S   W          +W
|-------------------|--------------------|----------|--------*|
|-10-----9---10-----|-9-----10---9---3-3-|-3--------|-(3)----*|
|--9-----9----9-----|-9------9---9---2-2-|-2--------|-(2)----*|
|-------------------|-9------9---9-0-0-0-|-0--------|-(0)----*|
|----0-0---0----0-0-|---7-7----7---------|-0--------|-(0)----*|
|-------------------|--------------------|----------|--------*|


Duration Legend
---------------
W - whole; H - half; Q - quarter; E - 8th; S - 16th; T - 32nd; X - 64th; a - acciaccatura
+ - note tied to previous; . - note dotted; .. - note double dotted
Uncapitalized letters represent notes that are staccato (1/2 duration)
Irregular groupings are notated above the duration line
Duration letters will always appear directly above the note/fret number it represents the
duration for.  Duration letters with no fret number below them represent rests.  Multi-
bar rests are notated in the form Wxn, where n is the number of bars to rest for.  Low
melody durations appear below the staff

Tablature Legend
----------------
 h   - hammer-on
 p   - pull-off
 b   - bend
 pb  - pre-bend
 r   - bend release (if no number after the r, then release immediately)
 /\  - slide into or out of (from/to "nowhere")
 s   - legato slide
 S   - shift slide
  - natural harmonic
[n]  - artificial harmonic
n(n) - tapped harmonic
 ~   - vibrato
 tr  - trill
 T   - tap
 TP  - trem. picking
 PM  - palm muting
\n/  - tremolo bar dip; n = amount to dip
 \n  - tremolo bar down
 n/  - tremolo bar up
/n\  - tremolo bar inverted dip
 =   - hold bend; also acts as connecting device for hammers/pulls
 <>  - volume swell (louder/softer)
 x   - on rhythm slash represents muted slash
 o   - on rhythm slash represents single note slash

Misc Legend
-----------
 |  - bar
||  - double bar
||o - repeat start
o|| - repeat end
*|  - double bar (ending)
 :  - bar (freetime)
 $  - Segno
 &  - Coda
Tempo markers -  = BPM(8/16=s8/s16), where s8 = swing 8ths, s16 = swing 16ths





Comments


Popular Kix tabs & chords
Cold Chills Bass Tabs
Cold Blood Chords
Don't Close Your Eyes Chords
Blow My Fuse Intro Tabs
Blow My Fuse Intro 1 Tabs
Girl Money Tabs
Hot Wire Intro Tabs
Tear Down The Walls Tabs
Cold Blood Ukulele
Dont Close Your Eyes Ukulele


Song lyrics



↑ Back to top | Tablatures and chords are parodies/interpretations of the original songs. You may use it for private study, scholarship, research or language learning purposes only
© 2014 AZChords.com Contact us | Privacy policy | DMCA | Add/correct tabs | Request tabs | Top 50 tabs