» » »

Kix, Blow My Fuse Tabs (ver.2)

Artists:  A B C D E F G H I J K L M N O P Q R S T U V W X Y Z # 

Blow My Fuse Tabs (ver.2)

Kix Tabs
 Rating:
4/5 (6 votes)
Blow My Fuse lessons Tabs too difficult? Try these video lessons and learn fast
1
                (Intro)
E:---------|--------------------|---------------|---------------|
A:--------2|--------------------|---------------|--------------0|
D:--------0|--------------------|---------------|--------------2|
G:--1--2--0|--3/4--1--2--2--1---|--5--5--5--5--2|--2--------2--2|
B:--0--0---|--2/3--0--0--0--0--1|--6--6--5--6--3|--3--3--3--3---|
E:--0--0---|-------1--2--2--1--1|--5--5--5--5--2|--2--3--3--2---|

E:---------|--------------------|---------------|---------------|
A:--------2|--------------------|---------------|--------------0|
D:--------0|--------------------|---------------|--------------2|
G:--1--2--0|--3/4--1--2--2--1---|--5--5--5--5--2|--2--------2--2|
B:--0--0---|--2/3--0--0--0--0--1|--6--6--5--6--3|--3--3--3--3---|
E:--0--0---|-------1--2--2--1--1|--5--5--5--5--2|--2--3--3--2---|

                   G
E:|-------------|--3--2--0--0------------------|-----------3--3------|
A:|0--0--0--0--0|--2-----------2--3--2--3--2--0|--0--0--0--2--2-----0|
D:|2--2--2--2--2|--0-----------4--5--4--5--4--2|--2--2--2--0--0-----2|
G:|2--2--2--2--2|--0--------------------------2|--2--2--2--0--0--2--2|
B:|-------------|--3---------------------------|-----------3--3--3---|
E:|-------------|--3---------------------------|-----------3--3--2---|

E:--3--2--0|
A:--2------|
D:--0------|
G:--0------|
B:--3------|
E:--3------|
            
Submit corrections

comments powered by Disqus
↑ Back to top | Kix Tabs for Blow My Fuse. Lyrics for acoustic guitar and electric guitar. 1 Tablatures and chords are parodies/interpretations of the original songs. You may use it for private study, scholarship, research or language learning purposes only