» » »

Kittie, Spit Tabs (ver.3)

Artists:  A B C D E F G H I J K L M N O P Q R S T U V W X Y Z # 

Spit Tabs (ver.3)

Kittie Tabs
Rating:
0/5 (0 votes)
Spit lessons Tabs too difficult? Try these video lessons and learn fast
                Intro
                    x7           x1     x1             x10 / 6
d|------------------|------------|-------|-----------------|
A|------------------|------------|-------|-----------------|
F|------------------|------------|-------|-----------------|
C|------------------|------------|-0-0-0-|-0-2-1-0-1-2-0-2-|
G|------------------|------------|-0-0-0-|-0-2-1-0-1-2-0-2-|
C|-0-2-1-0-1-2-0-2--|--0-2-1-0---|-0-0-0-|-0-2-1-0-1-2-0-2-|
                                 
Verse
                                     x4 
d|-----------------------------------|
A|-----------------------------------|
F|-----------------------------------|
C|-2-2-2--2----2-2-2-2--2---0-1------|
G|-2-2-2--2----2-2-2-2--2---0-1------|
C|-2-2-2--2----2-2-2-2--2---0-1------|
  I-PM-I      I--PM---I

Chorus: 
                   x3                        x10 / 6 
d|------------------|--------------|---------------|
A|------------------|--------------|---------------|
F|------------------|--------------|---------------|
C|------------------|---------0-0--|-0-2-1-0-2-0-2-|
G|------------------|---------0-0--|-0-2-1-0-2-0-2-|
C|--0-2-1-0-1-2-0-2-|-0-2-1-0-0-0--|-0-2-1-0-2-0-2-|
                             |-pm-|
                                     x4 
d|-----------------------------------|
A|-----------------------------------|
F|-----------------------------------|
C|-2-2-2--2----2-2-2-2--2---0-1------|
G|-2-2-2--2----2-2-2-2--2---0-1------|
C|-2-2-2--2----2-2-2-2--2---0-1------|
  I-PM-I      I--PM---I
                                     x4
|------------------------------------|
|------------------------------------|
|-x-11-x-11-x-11-x-11----------------|
|-x-11-x-11-x-11-x-11----------------|
|-x--9-x--9-x--9-x--9----------------|
|------------------------------------|
        
Bridge:                                          
                         x3
d|-----------------------|--------------|
A|-----------------------|--------------|
F|-----------------------|--------------|
C|-----------------------|--------------|
G|-----------------------|--------------|
C|-0-1-0-1-0-1-0-3-3-3-3-|-0-1-1-0-3----|
   pm...................   pm.....


Outro: 
                     x9
d|--------------------|
A|--------------------|
F|--------------------|
C|--0-1-0-1-0-1-0-3---|
G|--0-1-0-1-0-1-0-3---|
C|--0-1-0-1-0-1-0-3---|
            
Submit corrections

comments powered by Disqus
↑ Back to top | Kittie Tabs for Spit. Lyrics for acoustic guitar and electric guitar. Tablatures and chords are parodies/interpretations of the original songs. You may use it for private study, scholarship, research or language learning purposes only