» » »

Kittie, Severed Tabs (ver.2)

Artists:  A B C D E F G H I J K L M N O P Q R S T U V W X Y Z # 

Severed Tabs (ver.2)

Kittie Tabs
 Rating:
4/5 (4 votes)
Severed lessons Tabs too difficult? Try these video lessons and learn fast
1
                Tuning: Drop C

 pm=palm mute

 Intro (repeated over and over)
------------------------------
 -----------------------------
 -----------------------------
 -----------------------------
 ----3--2--0--4--5--4---------
 ----3--2--0--4--5--4---------

 Verse (repeat 8x)
 ----------------------------------------------------------
 ----------------------------------------------------------
 ----------------------------------------------------------
 ----------------------------------------------------------
 ---0-0-0-0-0-0-0-0-0----0-0-0-0-0-0-0-0-0---0-0-0-0-0-----
 ---0-0-0-0-0-0-0-0-0----0-0-0-0-0-0-0-0-0---0-0-0-0-0-----
 pm..................    .................   .........

 Chorus (repeat entire measure 3x)
 -----------------------------
 -----------------------------
 -----------------------------  4x
 -----------------------------
 ----3--2--0--4--5--4---------
 ----3--2--0--4--5--4---------

 --------------------------------------------------------------------------
 --------------------------------------------------------------------------
 --------------------------------------------------------------------------
 ---3--3--3--3--3--3--3--3--3--3--3--3--3--3--3--3--3--3--3--3--3--3--3--3-
 ---1--1--1--1--1--1--1--1--1--1--1--1--1--1--1--1--1--1--1--1--1--1--1--1-
 --------------------------------------------------------------------------

 Bridge
 -----------------------------
 -----------------------------
 ----------------------------- 4x
 -----------------------------
 ----3--2--0--4--5--4---------
 ----3--2--0--4--5--4---------

 ---------------------------------------------
 ---------------------------------------------
 --------------------------------------------- 4x
 ---------------------------------------------
 ----2------4---5---------2---4---1---3---0---
 ----2------4---5---------2---4---1---3---0---

 Repeat Verse

 Intro line 15x

 Outro
 -----------------------------
 -----------------------------
 -----------------------------
 -----------------------------
 ----3--2--0--4--5--4---------
 ----3--2--0--4--5--4---------
            
Submit corrections

comments powered by Disqus
↑ Back to top | Kittie Tabs for Severed. Lyrics for acoustic guitar and electric guitar. 1 Tablatures and chords are parodies/interpretations of the original songs. You may use it for private study, scholarship, research or language learning purposes only