» » »

Pink Lemonade Tabs (ver.1)

Artists:  A B C D E F G H I J K L M N O P Q R S T U V W X Y Z # 

Pink Lemonade Tabs (ver.1)

Kittie
Rating:
0/5 (0 votes)

Hard to play? Try these video lessons and learn fast.
                
This song is very long and extremly boring to play but i'll tab it anyways

Intro

---------------------------------
---------------------------------
--------------------------------- Let ring X2
-0-------------------------------
-0-------------------------------
-0-------------------------------

Riff 1
---------------------------------
---------------------------------
---------------------------------
-4---1------3---0----------------
-4---1------3---0----------------
-4---1------3---0----------------

Riff 2
---------------------------------
---------------------------------
---------------------------------
-5---5---5---5--6--3--0--5-------
-5---5---5---5--6--3--0--5-------
-5---5---5---5--6--3--0--5-------

Riff 3
---------------------------------
---------------------------------
---------------------------------
-5---5---5---5--6--4-----1-------
-5---5---5---5--6--4-----1-------
-5---5---5---5--6--4-----1-------

at the bridge part you play riff 1 but tremelo the chords to the rhythm you'll get it!!

on the outro just get alot of feedback whilst pick skraping and sliding
            
Hard to play? Try these video lessons and learn fast. | Correct




comments powered by Disqus
↑ Back to top | Tablatures and chords are parodies/interpretations of the original songs. You may use it for private study, scholarship, research or language learning purposes only