» » »

Pain Tabs (ver.2)

Artists:  A B C D E F G H I J K L M N O P Q R S T U V W X Y Z # 

Pain Tabs (ver.2)

Kittie
Rating:
0/5 (0 votes)

Hard to play? Try these video lessons and learn fast.
                tuning: drop D

      note: make sure it's in drop D! 
* = let ring

intro

D|-----------------------------------|
A|-----------------------------------|
D|--4-4-4-4-4-4-4-4-4-4-4-4-55555555-|
                tremolo pick........


verse                                             end riff
        
D|-2-2-r--2-2-r--2-2-r--2-2*-------0h2--|------|
A|-2-2-r--2-2-r--2-2-r--2-2*---0h2------|--3x--|
D|-2-2-r--2-2-r--2-2-r--2-2*------------|------|

end riff
D|-2-2-r--2-2-r--2-2-r--2-2*--2*---0-2-0-----------|
A|-2-2-r--2-2-r--2-2-r--2-2*--------------2-0------|
D|-2-2-r--2-2-r--2-2-r--2-2*-------------------5*--|


chorus

you deserve nothing at all.........
D|--5-5-5--3-3-3--2*-----|
A|--5-5-5--3-3-3--2*-----|
D|--5-5-5--3-3-3--2*-----|
  pm.................


interlude

tremolo pick all exept the last chord
D|-4-4-4-4-4-4--4*--|------|
A|-4-4-4-4-4-4--4*--|--4x--|
D|-4-4-4-4-4-4--4*--|------|

end riff

D|---0-2-------0-2------0-2----3-2-0--|
A|-3------1--3-----1--3------1--------|


outro


you deserve nothing at all.........
D|--5-5-5--3-3-3--2*-----|
A|--5-5-5--3-3-3--2*-----|
D|--5-5-5--3-3-3--2*-----|
  pm.................

fill (play during the fouth time you play the outro)

D|------2-0*----|
A|--0-2---------|


i tabed this song because NO ONE ELSE IN THE WORLD HAS!i dont know why though,
it's a wicked song to play.
            
Hard to play? Try these video lessons and learn fast. | Correct




comments powered by Disqus
↑ Back to top | Tablatures and chords are parodies/interpretations of the original songs. You may use it for private study, scholarship, research or language learning purposes only