» » »

Never Again Tabs (ver.1)

Artists:  A B C D E F G H I J K L M N O P Q R S T U V W X Y Z # 

Never Again Tabs (ver.1)

Kittie
Rating:
0/5 (0 votes)

Hard to play? Try these video lessons and learn fast.
                
Kittie is back in full force!! This is not the Funeral For 
Yesterday version, this is  Never Again-EP version. The only 
difference is the vocals and the arrangements, I don't think there 
are any difference besides that. I have stated before that I am not a
lead guitarist, rythmn is my forte`. I am very happy with how 
the solo came out though which shows the progress of my playing. 
I am 100% confident that this tab is 100% correct!!Lyrics at the 
bottom. You know the deal leave comments and rate, later.

Tuning:CGCFAD

Guitar 1: Morgan Lander
Guitar 2: Tara McLeon

Both guitars play the same thing until the solo.

Intro:
D|-------------------------------------------------------------------------|
A|-------------------------------------------------------------------------|
F|-------------------------------------------------------------------------|
C|-1---3--3\---------------------------------------------------------------|
G|-1---3--3\---------------------------------------------------------------|
C|-1---3--3\---000-0-0-0-0-0-0-0-12-10-12--0-000-0-0-0-0-0-0-0-12-10-12----|
               *** * * * * * * *           * *** * * * * * * *

D|-------------------------------------------------------------------------|
A|-------------------------------------------------------------------------|
F|-------------------------------------------------------------------------|
C|-------------------------------------------------------------------------|
G|---------------------------------------------------3-3-3/6-6-6-----------|
C|-0-000-0-0-0-0-0-0-0-12-10-12--0-000-0-0-0-0-0-0-0-3-3-3/6-6-6--0-000----|
   * *** * * * * * * *           * *** * * * * * * *              * ***

D|-------------------------------------------------------------------------|
A|-------------------------------------------------------------------------|
F|-------------------------------------------------------------------------|
C|-------------------------------------------------------------------------|
G|-------------------------------------------------------------------------|
C|-0-0-0-0-0-0-0-12-10-12--0-000-0-0-0-0-0-0-0-12-10-12--0-000-0-0-0-0-0-0-|
   * * * * * * *           * *** * * * * * * *           * *** * * * * * *

D|-------------------------------------------------------------------------|
A|-------------------------------------------------------------------------|
F|-------------------------------------------------------------------------|
C|-------------3---6-------------------------------------------------------|
G|-------------3---6-------------------------------------------------------|
C|-0-12-10-12--3---6-------------------------------------------------------|
   *

Verse:
"AN ACT OF DESPERATION..."
D|-------------------------------------------------------------------------|
A|-------------------------------------------------------------------------|
F|-------------------------------------------------------------------------|
C|-------------------------------------------------------------------------|
G|-------------------------------------------------------------------------|
C|-0-000-0-0-0--0-0-0-0-0--0-000-0-0-0--0-0-0-0-0--3-333-3-3-3--3-3-3-3-3--|
   * *** * * *  * * * * *  * *** * * *  * * * * *  * *** * * *  * * * * *

D|-------------------------|
A|-------------------------|
F|-------------------------|
C|------------------3-2-0--|x2
G|-------------------------|
C|-2-222-2-2-2--2-2--------|
   * *** * * *  * *

D|-------------------------------------------------------------------------|
A|-------------------------------------------------------------------------|
F|-------------------------------------------------------------------------|
C|-------------------------------------------------------------------------|
G|-----------------------3------------------------3------------------------|
C|-0-0-0-0-0-0-5-3-0-3h5----0-0-0-0-0-0-5-3-0-3h5----3-3-3-3-3-3-3-3-3-2-2-|
   * * * * * *              * * * * * *              * * * * * * * * * * *

D|---------------------------|
A|---------------------------|
F|---------------------------|
C|---------------------------|x2
G|-------------8-6-5-6-5-3---|
C|-2-2-2-2-2-2---------------|
   * * * * * *

Chorus:
"NEVER... AGAIN..."
D|---------|
A|---------|
F|---------|
C|-1---3---|
G|-1---3---|
C|-1---3---|

D|-------------------------------------------------------------------------|
A|-------------------------------------------------------------------------|
F|-------------------------------------------------------------------------|
C|-------------------------------------------------------------------------|
G|-------------------------------------------------------------------------|
C|-000-0-0-0-0-0-0-0-12-10-12--0-000-0-0-0-0-0-0-0-12-10-12--0-000-0-0-0-0-|
   *** * * * * * * *           * *** * * * * * * *           * *** * * * *

D|-------------------------------------------------|
A|-------------------------------------------------|
F|-------------------------------------------------|
C|-------------------------------------------------|x2
G|-------------------------------------3-3-3/6-6-6-|
C|-0-0-0-12-10-12--0-000-0-0-0-0-0-0-0-3-3-3/6-6-6-|
   * * *           * *** * * * * * * *

D|-------------------------------------------------------------------------|
A|-------------------------------------------------------------------------|
F|-------------------------------------------------------------------------|
C|-------------------------------------------------------------------------|
G|-------------------------------------------------------------------------|
C|-0-0-0-0-0-0-0-0-0-12-10-12--0-0-0-0-0-0-0-0-0-10-13-12--0-0-0-0-0-0-0-0-|
   * * * * * * * * *           * * * * * * * * *           * * * * * * * *

D|-----------------------------------------------------------------|
A|-----------------------------------------------------------------|
F|-----------------------------------------------------------------|
C|-----------------------------------------------------------------|
G|-------------------------------3-3-3/6-6-6-----------------------|
C|-0-12-10-12--0-0-0-0-0-0-0-0-0-3-3-3/6-6-6--0-000-0-0-0-0-0-0-0--|
   *           * * * * * * * * *              * *** * * * * * * *

D|-------------------------------------------------------------------------|
A|-------------------------------------------------------------------------|
F|-------------------------------------------------------------------------|
C|-------------------------------------------------------------------------|
G|-------------------------------------------------------------------------|
C|-12-10-12--0-000-0-0-0-0-0-0-0-12-10-12--0-000-0-0-0-0-0-0-0-12-10-12----|
             * *** * * * * * * *           * *** * * * * * * *

D|--------|
A|--------|
F|--------|
C|-3---6--|
G|-3---6--|
C|-3---6--|

Verse 2:
"I'M BITTER TO THE CORE NOW..."
D|-------------------------------------------------------------------------|
A|-------------------------------------------------------------------------|
F|-------------------------------------------------------------------------|
C|-------------------------------------------------------------------------|
G|-------------------------------------------------------------------------|
C|-0-000-0-0-0--0-0-0-0-0--0-000-0-0-0--0-0-0-0-0--3-333-3-3-3--3-3-3-3-3--|
   * *** * * *  * * * * *  * *** * * *  * * * * *  * *** * * *  * * * * *

D|-------------------------|
A|-------------------------|
F|-------------------------|
C|------------------3-2-0--|x2
G|-------------------------|
C|-2-222-2-2-2--2-2--------|
   * *** * * *  * *

D|-------------------------------------------------------------------------|
A|-------------------------------------------------------------------------|
F|-------------------------------------------------------------------------|
C|-------------------------------------------------------------------------|
G|-----------------------3------------------------3------------------------|
C|-0-0-0-0-0-0-5-3-0-3h5----0-0-0-0-0-0-5-3-0-3h5----3-3-3-3-3-3-3-3-3-2-2-|
   * * * * * *              * * * * * *              * * * * * * * * * * *

D|---------------------------|
A|---------------------------|
F|---------------------------|
C|---------------------------|x2
G|-------------8-6-5-6-5-3---|
C|-2-2-2-2-2-2---------------|
   * * * * * *

Chorus 2:
"NEVER...AGAIN..."
D|---------|
A|---------|
F|---------|
C|-1---3---|
G|-1---3---|
C|-1---3---|

D|-------------------------------------------------------------------------|
A|-------------------------------------------------------------------------|
F|-------------------------------------------------------------------------|
C|-------------------------------------------------------------------------|
G|-------------------------------------------------------------------------|
C|-000-0-0-0-0-0-0-0-12-10-12--0-000-0-0-0-0-0-0-0-12-10-12--0-000-0-0-0-0-|
   *** * * * * * * *           * *** * * * * * * *           * *** * * * *

D|-------------------------------------------------|
A|-------------------------------------------------|
F|-------------------------------------------------|
C|-------------------------------------------------|x2
G|-------------------------------------3-3-3/6-6-6-|
C|-0-0-0-12-10-12--0-000-0-0-0-0-0-0-0-3-3-3/6-6-6-|
   * * *           * *** * * * * * * *

D|-------------------------------------------------------------------------|
A|-------------------------------------------------------------------------|
F|-------------------------------------------------------------------------|
C|-------------------------------------------------------------------------|
G|-------------------------------------------------------------------------|
C|-0-0-0-0-0-0-0-0-0-12-10-12--0-0-0-0-0-0-0-0-0-10-13-12--0-0-0-0-0-0-0-0-|
   * * * * * * * * *           * * * * * * * * *           * * * * * * * *

D|-----------------------------------------------------------------|
A|-----------------------------------------------------------------|
F|-----------------------------------------------------------------|
C|-----------------------------------------------------------------|
G|-------------------------------3-3-3/6-6-6-----------------------|
C|-0-12-10-12--0-0-0-0-0-0-0-0-0-3-3-3/6-6-6--0-000-0-0-0-0-0-0-0--|
   *           * * * * * * * * *              * *** * * * * * * *

D|-------------------------------------------------------------------------|
A|-------------------------------------------------------------------------|
F|-------------------------------------------------------------------------|
C|-------------------------------------------------------------------------|
G|-------------------------------------------------------------------------|
C|-12-10-12--0-000-0-0-0-0-0-0-0-12-10-12--0-000-0-0-0-0-0-0-0-12-10-12----|
             * *** * * * * * * *           * *** * * * * * * *

D|--------|
A|--------|
F|--------|
C|-3---6--|
G|-3---6--|
C|-3---6--|

Breakdown:
D|-------------------------------------|
A|-------------------------------------|
F|-------------------------------------|
C|-0-----------------0-----------------|x2
G|-0--------5-3-6-5--0--------5-3------|
C|-0--0-3-5----------0--0-3-5-----5-3--|

D|-------------------------------------------------------------------------|
A|-------------------------------------------------------------------------|
F|-------------------------------------------------------------------------|
C|-------------------------------------------------------------------------|
G|-------------------------------------------------------------------------|
C|-0-000-0-0-0--0-0-0-0-0-0-000-0-0-0--0-0-0-0-0-0-000-0-0-0--0-0-0-0-0-0--|
   * *** * * *  * * * * * * *** * * *  * * * * * * *** * * *  * * * * * *

D|------------------------|
A|------------------------|
F|------------------------|
C|------------------------|
G|-----------3-3-3/6-6-6--|
C|-000-0-0-0-3-3-3/6-6-6--|
   *** * * *
Solo:
Guitar 2
w/ wah
D|-------------------------------------------------------------------------|
A|-------------------------------------------------18-15-15-18~--18-15-15--|
F|-19(20)r-17-16(17)r-14-1414-14p12-12(13)r------------------P-------------|
C|------------------------------------------12~-12-------------------------|
G|-------------------------------------------------------------------------|
C|-------------------------------------------------------------------------|

D|---------------------------------------------------------------15(17)----|
A|-----11(12)r------------------------13~-------------------15~------------|
F|-12--12(13)r-------------------------------------------------------------|
C|--------------12~--12-14p12--14/15-------12-14p12--14/15-----------------|
G|-------------------------------------------------------------------------|
C|-------------------------------------------------------------------------|

D|-15p13-----------13------------------------------------------------------|
A|--------15~--15------15-15-15/17-----------------------------------------|
F|-----------------------------------12(13)r-------------------------------|
C|----------------------------------------------12~~-----------------------|
G|-------------------------------------------------------------------------|
C|-------------------------------------------------------------------------|


Chorus 3: (Under solo)
Guitar 1
D|-------------------------------------------------------------------------|
A|-------------------------------------------------------------------------|
F|-------------------------------------------------------------------------|
C|-------------------------------------------------------------------------|
G|-------------------------------------------------------------------------|
C|-000-0-0-0-0-0-0-0-12-10-12--0-000-0-0-0-0-0-0-0-12-10-12--0-000-0-0-0-0-|
   *** * * * * * * *           * *** * * * * * * *           * *** * * * *

D|-------------------------------------------------|
A|-------------------------------------------------|
F|-------------------------------------------------|
C|-------------------------------------------------|x2
G|-------------------------------------3-3-3/6-6-6-|
C|-0-0-0-12-10-12--0-000-0-0-0-0-0-0-0-3-3-3/6-6-6-|
   * * *           * *** * * * * * * *

Guitar 2 joins here after solo
D|-------------------------------------------------------------------------|
A|-------------------------------------------------------------------------|
F|-------------------------------------------------------------------------|
C|-------------------------------------------------------------------------|
G|-------------------------------------------------------------------------|
C|-0-0-0-0-0-0-0-0-0-12-10-12--0-0-0-0-0-0-0-0-0-10-13-12--0-0-0-0-0-0-0-0-|
   * * * * * * * * *           * * * * * * * * *           * * * * * * * *

D|-----------------------------------------------------------------|
A|-----------------------------------------------------------------|
F|-----------------------------------------------------------------|
C|-----------------------------------------------------------------|
G|-------------------------------3-3-3/6-6-6-----------------------|
C|-0-12-10-12--0-0-0-0-0-0-0-0-0-3-3-3/6-6-6--0-000-0-0-0-0-0-0-0--|
   *           * * * * * * * * *              * *** * * * * * * *

D|-------------------------------------------------------------------------|
A|-------------------------------------------------------------------------|
F|-------------------------------------------------------------------------|
C|-------------------------------------------------------------------------|
G|-------------------------------------------------------------------------|
C|-12-10-12--0-000-0-0-0-0-0-0-0-12-10-12--0-000-0-0-0-0-0-0-0-12-10-12----|
             * *** * * * * * * *           * *** * * * * * * *

D|--------|
A|--------|
F|--------|
C|-3---6--|
G|-3---6--|
C|-3---6--|

Lyrics:
An act of desperation 
When will this ever end? 
My sorrow turns to hatred
I'll get my sweet revenge 
Lies, deception 
I've never been so strong 
Lies, deception 
You've never been so wrong 
Never again will I let this destroy my plans 
You'll beg for forgiveness 
Never again will I let this destroy my plans 
You'll beg for mercy 
I'm bitter to the core now 
I've seen those kindoms fall 
All trust has crumbled slowly 
I'll build up higher walls 
Lies, deception 
I've never been so strong 
Lies, deception 
I've never been so wrong
Never again will I let this destroy my plans 
You'll beg for forgiveness 
Never again will I let this destroy my plans
You'll beg for mercy

| /  slide up
| \  slide down
| h  hammer-on
| p  pull-off
| P  Pinch Harmonic
| () Bend to note indicated in parentesis
| r  Return bend
| ~  vibrato
| +  harmonic
| x  Mute note
| *  Palm Mute
            
Hard to play? Try these video lessons and learn fast. | Correct




comments powered by Disqus
↑ Back to top | Tablatures and chords are parodies/interpretations of the original songs. You may use it for private study, scholarship, research or language learning purposes only