» » »

In Winter Bass tabs (ver.1)

Artists:  A B C D E F G H I J K L M N O P Q R S T U V W X Y Z # 

In Winter Bass tabs (ver.1)

Kittie
Rating:
0/5 (0 votes)

Hard to play? Try these video lessons and learn fast.
                Song is in drop C

Intro - No bass

Verse A
G- |--------------------------------------------------------------|
D- |--------------------------------------------------------------|
A- |--------------------------------------------------------------|
C- |222222-22222-2-xxx-222222-22222-2-xxx-------------------------|

Verse B
G- |--------------------------------------------------------------|
D- |--------------------------------------------------------------|
A- |--------------------------------------------------------------|
C- |000000-00000-0-xxx-000000-00000-0-xxx-------------------------|

Repeat 4x

Pre-chorus
G- |----------------------------------|
D- |----------------------------------|
A- |----------------------------------|
C- |6-xxx-66-7-22222-00-6-------------|

Repeat 4x

Chorus
G- |------------------------------------------------------------------|
D- |------------------------------------------------------------------|
A- |------------------------------------------------------------------|
C- |2-66-77-66-2-66-77-66-0-66-77-66-0-66-77-66-----------------------|

Repeat 2x

Verse A
G- |--------------------------------------------------------------|
D- |--------------------------------------------------------------|
A- |--------------------------------------------------------------|
C- |222222-22222-2-xxx-222222-22222-2-xxx-------------------------|

Verse B
G- |--------------------------------------------------------------|
D- |--------------------------------------------------------------|
A- |--------------------------------------------------------------|
C- |000000-00000-0-xxx-000000-00000-0-xxx-------------------------|

Repeat 4x

Pre-Chorus
G- |----------------------------------|
D- |----------------------------------|
A- |----------------------------------|
C- |6-xxx-66-7-22222-00-6-------------|

Repeat 4x

Chorus
G- |------------------------------------------------------------------|
D- |------------------------------------------------------------------|
A- |------------------------------------------------------------------|
C- |2-66-77-66-2-66-77-66-0-66-77-66-0-66-77-66-----------------------|

Repeat 2x

Interlude
G- |----------------------------------------------------------|
D- |----------------------------------------------------------|
A- |----------------------------------------------------------|
C- |2222222-0-222222-7777777-2222222-0------------------------|

Repeat 8x

Outro
G- |--------------------------------------------------------------|
D- |--------------------------------------------------------------|
A- |--------------------------------------------------------------|
C- |222222-22222-2-xxx-222222-22222-2-xxx-------------------------|

Repeat 8x

Sorry if the lines dont match evenly, it wouldn't save for some reason.
            
Hard to play? Try these video lessons and learn fast. | Correct




comments powered by Disqus
↑ Back to top | Tablatures and chords are parodies/interpretations of the original songs. You may use it for private study, scholarship, research or language learning purposes only