» » »

Kittie, In Winter Tabs (ver.3)

Artists:  A B C D E F G H I J K L M N O P Q R S T U V W X Y Z # 

In Winter Tabs (ver.3)

Kittie Tabs
Rating:
0/5 (0 votes)
In Winter lessons Tabs too difficult? Try these video lessons and learn fast
                -----------------------|
-----------------------|
-----------------------|
--4-4-4-4-4-4-44444--4-|       INTRO
--4-4-4-4-4-4-44444--4-|
--2-2-2-2-2-2-22222--2-|  x4
  . . . . . . .....  .

-----------------------     -----------------------|
-----------------------     -----------------------|
-----------------------     -----------------------|
--4-4-4-4-4-4-44444--4-     --2-2-2-2-2-2-22222--2-|     all x4   VERSE
--4-4-4-4-4-4-44444--4-     --2-2-2-2-2-2-22222--2-|
--2-2-2-2-2-2-22222--2- x2  --0-0-0-0-0-0-00000--0-| x2
  . . . . . . .....  .        . . . . . . .....  .

-------------------------------|
-------------------------------|
3------------------------------|   CHORUS
3------------------------------|
1------1-4-1-2222222222222222--|
--0000-1-4-1-2222222222222222--|
  ....       ................

"THE COLDEST WINTER"

-------------------------         ---------------------------|
-------------------------         ---------------------------|
-------------------------         ---------------------------|
-4-4-4-6-7-6-4-4-4-6-7-6-         --2-2-2-4-5-4-2-2-2-4-5-4--|
-4-4-4-6-7-6-4-4-4-6-7-6-         --2-2-2-4-5-4-2-2-2-4-5-4--|
-2-2-2-4-5-4-4-4-4-4-5-4-  x2     --0-0-0-2-3-2-0-0-0-2-3-2--| x2

------------------------------------------|
------------------------------------------|
------------------------------------------|
-4-4-4-4444-444-444--4-4-4---4444-444-444-|
-4-4-4-4444-444-444--4-4-4---4444-444-444-|
-2-2-2-2222-222-222--2-2-2---2222-222-222-|

------------------------------------------|
------------------------------------------|
4-4-4-4444-444-444------------------------|          BRIDGE
4-4-4-4444-444-444-4-4-4-4444-444-444-----|
2-2-2-2222-222-222-4-4-4-4444-444-444-----|
-------------------2-2-2-2222-222-222-----| to end of song

My guitar teacher figured this out it sounds 100% right
            
Submit corrections

comments powered by Disqus
↑ Back to top | Kittie Tabs for In Winter. Lyrics for acoustic guitar and electric guitar. Tablatures and chords are parodies/interpretations of the original songs. You may use it for private study, scholarship, research or language learning purposes only