» » »

Kittie, Cut Throat Bass tabs (ver.1)

Artists:  A B C D E F G H I J K L M N O P Q R S T U V W X Y Z # 

Cut Throat Bass tabs (ver.1)

Kittie Tabs
Rating:
4/5 (1 vote)
Cut Throat lessons Tabs too difficult? Try these video lessons and learn fast
                --------------------------------------------------------------------|
--------------------------------------------------------------------|
---------------------------------------------------------------9----|
-2-222-222-222-3-222-222-222-5-222-222-222-8-8888-8-----------------|(2x)


-------------------------------------------------------------------------------|
----------------------------------------------------------------------570------|
----------------------------------------------------------------8757-----------|
-2-222-222-222-3-222-222-222-5-222-222-222-----------------2-------------------|(4x)

------------------------------------|
--------------------------6-4-3-4---|
----878----878--878-----------------|
-00-----02-----03-------------------|(2x)


------------------------|
---------------570------|
--------8757------------|
-2*------------------2--|(7x)


------------------------------------------|
---------------570------------------------|
--------8757----------- ---------9--------|
-2*-----------------2----8-8888-8---------|(1x)
[Let the 2* ring]


-------------------------------------------------------------------------------|
----------------------------------------------------------------------570------|
----------------------------------------------------------------8757-----------|
-2-222-222-222-3-222-222-222-5-222-222-222-----------------2-------------------|(4x)


------------------------------------|
---------------------------6-4-3-4--|
----878----878----878---------------|
-00-----02-----03-------------------|(2x)


--------------------------|
---------------570--------|
--------8757--------------|
-2*-------------------2---|(7x)


---------------------------------------|
---------------570---------------------|
--------8757-----------------------9---|
-2*-------------------2----8-8888------|(1x)
[Let the 2* ring]


during Taras solo
-------------------------------------------------|
-------------------------------------------------|
-------------------------------------------------|
222-222-222-222-222-222-333-555------------------|

-------------------------------------------------|
-------------------------------------------------|
-------------------------------------------------|
000-000-000-000-000-000-666-777------------------|(2x)


-------------------------------------|
--------------------------6-4-3-4----|
----878----878---878-----------------|
-00-----02-----03--------------------|(2x)


-------------------------|
---------------570-------|
--------8757-------------|
-2*-------------------2--|(5x)


----------------------------------------|
---------------570----------------------|
--------8757-----------------------9----|
-2*-------------------2----8-8888--8----|(1x)
[Let the 2* ring]


-------------------------------------------------------------------------------|
----------------------------------------------------------------------570------|
----------------------------------------------------------------8757-----------|
-2-222-222-222-3-222-222-222-5-222-222-222-----------------2-------------------|(1x)
            

comments powered by Disqus
↑ Back to top | Kittie Bass for Cut Throat. Lyrics for acoustic guitar and electric guitar. Tablatures and chords are parodies/interpretations of the original songs. You may use it for private study, scholarship, research or language learning purposes only