>
 >
Cut Throat

Cut Throat Guitar Tabs

Kittie - Cut Throat chords, tabs, tablatures, lyrics

Guitar lessons | Add/correct | Request | Top 50 tabs Artists:  A B C D E F G H I J K L M N O P Q R S T U V W X Y Z 0-9

Cut Throat Guitar Tabs – Kittie

CD, Sheet music, Poster

Do you like Cut Throat? Share with your friends now
Bass TabsTabs

Tuning: (low to high) C G C F A D



Intro
D|-----------------------------------------------------------------|
A|-----------------------------------------------------------------|
F|-----------------------------------------------------------------|
C|-2-----------------------------------------------8-----------7---|
G|-2-----------------------------------------------8-----------7---|
C|-2-----222-222-222-3p2-222-222-222-5p2-222-222-2-8---8-8-8-8-7-7-|
PM       ... ... ...     ... ... ...     ... ... .     . . . .   .

D|-----------------------------------------------------------------|
A|-----------------------------------------------------------------|
F|-----------------------------------------------------------------|
C|-2-----------------------------------------------8-----------7---|
G|-2-----------------------------------------------8-----------7---|
C|-2---2-222-222-222-3p2-222-222-222-5p2-222-222-2-8---8-8-8-8-7-7-|
PM     . ... ... ...     ... ... ...     ... ... .     . . . .   .


Verse
D|-----------------------------------------------------------------|
A|-----------------------------------------------------------------|
F|-----------------------------------------------------------------|
C|-2---------------------------------------------------------------|  4x
G|-2---------------------------------------------------------5-7---|
C|-2---2-222-222-222-3p2-222-222-222-5p2-222-222-2-8---7-5-7-------|
PM     . ... ... ...     ... ... ...     ... ... .           


Pre-Chorus
D|-----------------------------------------------------------------|
A|-----------------------------------------------------------------|
F|-----------------------------------------------------------------|
C|---------------------------------5-------------------------------|  2x
G|-0-----8---7-8---2-----8---7-8---3-----8---7-8---10---8---7---8--|
C|-0---x---------x-2---x---------x-3---x---------x-----------------|


Chorus
D|-----------------------------------------------------------------|
A|-----------------------------------------------------------------|
F|-----------------------------------------------------------------|
C|-2---------------8---7-5-7-5-7-5-2---------------8---7-5-7-5-7-5-|
G|-2---------------8---7-5-7-5-7-5-2---------------8---7-5-7-5-7-5-|
C|-2---------------8---7-5-7-5-7-5-2---------------8---7-5-7-5-7-5-|

D|-----------------------------------------------------------------|
A|-----------------------------------------------------------------|
F|-----------------------------------------------------------------|
C|-0---------------8---7-5-7-5-7-5-0---------------8---7-5-7-5-7-5-|
G|-0---------------8---7-5-7-5-7-5-0---------------8---7-5-7-5-7-5-|
C|-0---------------8---7-5-7-5-7-5-0---------------8---7-5-7-5-7-5-|

D|-----------------------------------------------------------------|
A|-----------------------------------------------------------------|
F|-----------------------------------------------------------------|
C|-2---------------8---7-5-7-5-7-5-2---------------8---7-5-7-5-7-5-|
G|-2---------------8---7-5-7-5-7-5-2---------------8---7-5-7-5-7-5-|
C|-2---------------8---7-5-7-5-7-5-2---------------8---7-5-7-5-7-5-|

D|-----------------------------------------------------------------|
A|-----------------------------------------------------------------|
F|-----------------------------------------------------------------|
C|-0---------------8---7-5-7-5-7-5-0---------------8-----------7---|
G|-0---------------8---7-5-7-5-7-5-0---------------8-----------7---|
C|-0---------------8---7-5-7-5-7-5-0---------------8---8-8-8-8-7-7-|
PM                                                     . . . .   .


Verse
Pre-Chorus
Chorus


D|---------------------------------|
A|-----------------15-15-15-17-----|
F|---------------------------------|
C|-14-12-14-16---------------------|
G|---------------------------------|
C|---------------------------------|


Guitar Solo
(Morgan)
D|-----------------------------------------------------------------|
A|-----------------------------------------------------------------|
F|-----------------------------------------------------------------|
C|-2---------------------------------------------------------------|
G|-2---------------------------------------------------------------|
C|-2---222-222-222-222-222-222-222-222-222-222-222-222-333-555-333-|
PM     ... ... ... ... ... ... ... ... ... ... ... ... ... ... ... |
                                                                   |
(Tara)                                                             |
D|-17b18-----------17b18-------------------------------------------|
A|---------------------------------15h17-17--------15h17-----------|
F|--------------------------------------------16-----------12-/14~-|
C|-----------------------------------------------------------------|
G|-----------------------------------------------------------------|
C|-----------------------------------------------------------------|

D|-----------------------------------------------------------------|
A|-----------------------------------------------------------------|
F|-----------------------------------------------------------------|
C|-----------------------------------------------------------------|
G|-----------------------------------------------------------------|
C|-000-000-000-000-000-000-000-000-000-000-000-000-000-555-777-555-|
PM ... ... ... ... ... ... ... ... ... ... ... ... ... ... ... ... |
                                                                   |
D|----------------12-----------------------------------------------|
A|-15b17-----------------------------------------------------------|
F|-------------------15------------14~-----------------------------|
C|-----------------------------------------------------------------|
G|-----------------------------------------------------------------|
C|-----------------------------------------------------------------|

D|-----------------------------------------------------------------|
A|-----------------------------------------------------------------|
F|-----------------------------------------------------------------|
C|-----------------------------------------------------------------|
G|-----------------------------------------------------------------|
C|-222-222-222-222-222-222-222-222-222-222-222-222-222-333-555-333-|
PM ... ... ... ... ... ... ... ... ... ... ... ... ... ... ... ... |
                                                                   |
D|--------------------------------------------------------18-17-15-|
A|-----------------------------------------------------------------|
F|-3b---3b-----2-0-2-0-2-3~--------3b-----3b-----0h2-3~------------|
C|-----------------------------------------------------------------|
G|-----------------------------------------------------------------|
C|-----------------------------------------------------------------|

D|-----------------------------------------------------------------|
A|-----------------------------------------------------------------|
F|-----------------------------------------------------------------|
C|-----------------------------------------------------------------|
G|-----------------------------------------------------------------|
C|-000-000-000-000-000-000-000-000-000-000-000-000-000-555-777-555-|
PM ... ... ... ... ... ... ... ... ... ... ... ... ... ... ... ... |
                                                                   |
D|-12~-------------------------------------------------------------|
A|-----------------15~------------------------12/15-1515--17-15-17-|
F|------------------------10--9--7---------------------------------|
C|----------------------------------7~-----------------------------|
G|-----------------------------------------------------------------|
C|-----------------------------------------------------------------|


Pre-Chorus
Chorus


Outro
D|-----------------------------------------------------------------|
A|-----------------------------------------------------------------|
F|-----------------------------------------------------------------|
C|-2---------------------------------------------------------------|
G|-2---------------------------------------------------------5-7---|
C|-2---2-222-222-222-3p2-222-222-222-5p2-222-222-2-8---7-5-7-----0-|
PM     . ... ... ...     ... ... ...     ... ... .               .

D|-----------------------------------------------------------------|
A|-----------------------------------------------------------------|
F|-----------------------------------------------------------------|
C|-2---------------------------------------------------------------|
G|-2---------------------------------------------------------------|
C|-2---------------------------------------------------------------|


| PM palm mute
| x  mute string
| h  hammer-on
| p  pull-off
| b  bend
| /  slide up
| \  slide down
| ~  vibrato
============================================================================





Comments


Popular Kittie tabs & chords
Jonny Bass Tabs
Brackish 1 Drum Tabs
Everything That Could Have Been Tabs
In Winter 2 Tabs
Into The Darkness 2 Tabs
Jonny 1 Tabs
Mouthful Of Poison 2 Tabs
Safe Tabs
This Town Tabs
Trippin' Tabs


Song lyrics



↑ Back to top | Tablatures and chords are parodies/interpretations of the original songs. You may use it for private study, scholarship, research or language learning purposes only
© 2014 AZChords.com Contact us | Privacy policy | DMCA | Add/correct tabs | Request tabs | Top 50 tabs