» » »

Charlotte Tabs (ver.2)

Artists:  A B C D E F G H I J K L M N O P Q R S T U V W X Y Z # 

Charlotte Tabs (ver.2)

Kittie
Rating:
0/5 (0 votes)

Hard to play? Try these video lessons and learn fast.
                ----------------------------------------------------------------------------
                                CHARLOTTE-kittie
----------------------------------------------------------------------------


tuning: 
String 1-d   4-C
       2-A   5-G
       3-F   6-C






 *CHaRLoTTe*
  intro 8x               verse   16x   (guitar 2)
d|--------|--------------------------|--------------|
A|--------|--------------------------|--------------|
F|--------|-----3x-------------------|--------------|
C|--4444--|-------4444-------4-4-4-4-|--0000-4444---|
G|--4444--|-------4444-------4-4-4-4-|--0000-4444---|
C|--4444--|--00-4-4444--00-4-4-4-4-4-|--0000-4444---|

   chorus
|---------------------------|----------------------------|
|---------------------------|----------------------------|
|---------------------------|----------------------------|
|---------------------------|--321212121233--32121212123-|
|---------------------------|--321212121233--32121212123-|
|--32121212123--321212121233|--321212121233--32121212123-|
                           -              -             

       verse        16x        (guitar 2)            bridge
|---------------------------|------------|----|-----------------------------
|---------------------------|------------|----|-----------------------------
|---3x----------------------|------------|----|-----------------------------
|-------4444-------4-4-4-4--|--0000-4444-|-0--|-----------------------------
|-------4444-------4-4-4-4--|--0000-4444-|-0--|5-555-5-55-5555--------------
|--00-4-4444--00-4-4-4-4-4--|--0000-4444-|-0--|----------------5-555-55-5555

                                                  2x
|-----------------------------------------------------------------|
|-----------------------------------------------------------------|
|-----------------------------------------------------------------|
|-----------------------------------------------------------------|
|5-555-5-555-5555----------------5-555-5-7777-8888----------------|
|----------------5-555-55-5-5555------------------5-555-55-5-5555-|

                        2x
|----------------------------------|--------------------------------|
|----------------------------------|--------------------------------|
|----------------------------------|--------------------------------|
|----------------------------------|--------------------------------|
|5-555-5-7777-8888-----------------|5-555-5-555-55555-55555-55555555|
|-----------------5-555-55-5-5555--|--------------------------------|


|---------------------------------|-------------------------------|
|---------------------------------|-------------------------------|
|---------------------------------|-------------------------------|
|55555-5555-5555-55555-5555-5-5555|-555-5-7777-8888---------------|
|55555-5555-5555-55555-5555-5-5555|-555-5-7777-88885-555-5555-5555|
|55555-5555-5555-55555-5555-5-5555|----------------5-555-5555-5555|



outro    4x
|-----------------------|--------------------------|
|-----------------------|--------------------------|
|-----------------------|--------------------------|
|---------------------0-|--777888777888------------|
|55555555555555555555-0-|--777888777888-001100011--|
|55555555555555555555-0-|---------------001100011--|
                                  pm    .........
            
Hard to play? Try these video lessons and learn fast. | Correct




comments powered by Disqus
↑ Back to top | Tablatures and chords are parodies/interpretations of the original songs. You may use it for private study, scholarship, research or language learning purposes only