>
 >
Palekastro

Palekastro Guitar Tabs

Kingston Wall - Palekastro chords, tabs, tablatures, lyrics

Guitar lessons | Add/correct | Request | Top 50 tabs Artists:  A B C D E F G H I J K L M N O P Q R S T U V W X Y Z 0-9

Palekastro Guitar Tabs – Kingston Wall

CD, Sheet music, Poster

Do you like Palekastro? Share with your friends now
Tabs
This is a tab for Kingston Wall's instrumental Palekastro
Everything isn't accurate, but somewhat right. Don't ask how to make your guitar sound 
way it does in the song, I seriously don't have a clue.

0.00-0.06 Play E5

0.06-0.20 Riff A Play twice

eb|---------------------------------------------------------------------------|
Bb|---------------------------------------------------------------------------|
Gb|-----------------9--------9-11-12-11h12p11-9----7--------------------------|
Db|----7-------9-10-----------------------------------10-9-------------9-10-9-|
Ab|---------------------------------------------------------------------------|
Eb|---------------------------------------------------------------------------|

0.20-0.26 Riff B Play once

eb|--------------------------------------------------------------------------|
Bb|--------------------------------------------------------------------------|
Gb|---14-16-17---16h17p16---12-11-9---------9-11-12-11h12p11-9----8-11-7-----|
Db|--------------------------------------------------------------------------|
Ab|--------------------------------------------------------------------------|
Eb|--------------------------------------------------------------------------|

0.026-0.35 Riff C once

eb|--------------------------------------------------------------------------|
Bb|--------------------------------------------------------------------------|
Gb|-8-----xx9--------xx11-----xx12------xx14---------------------------------|
Db|--------------------------------------------------------------------------|
Ab|--------------------------------------------------------------------------|
Eb|--------------------------------------------------------------------------|

Then play E5 and B5 twice

Repeat from the beginning

Riff C is slightly different 2nd time


eb|--------------------------------------------------------------------------|
Bb|--------------------------------------------------------------------------|
Gb|-99-99-8-----xx9--8-9-11-----xx12--13-12----14-then bend 14 a whole step--|
Db|--------------------------------------------------------------------------|
Ab|--------------------------------------------------------------------------|
Eb|--------------------------------------------------------------------------|

Then a little impro in E minor for example.

At 1.26 E5 4 times


1.40 Riff D Twice

eb|--------------------------------------------------------------------------|
Bb|--------------------------------------------------------------------------|
Gb|---------------------------------------------------------7---9-9s11-------|
Db|-----10-9---7p9h7--6----------6s7-6-------------6-7-9-10------------------|
Ab|------------------------------------9-------------------------------------|
Eb|--------------------------------------------------------------------------|

Then it's just E5, and impro in E minor.

Repeat from the beginning, but the parts come differently. You have to figure them out yourself.


I kindly accept email regarding tab requests (I know many Kingston Wall songs), 
etc. I also play the bass, so if you want bass tabs, I can handle them too. I think I will post 
tabs for Palekastro soon.


Thanks for using my tab!

************************************

| /   slide up
| \   slide down
| h   hammer-on
| p   pull-off
| ~   vibrato
| +   harmonic
| x   Mute note
| b   Bend
| pb  Pre-bend
| br  Bend release
| pbr Pre-bend release





Comments


Popular Kingston Wall tabs & chords
Could It Be So? Bass Tabs
Mushrooms Tabs
On My Own Tabs
Palekastro Intro Tabs
Take To Sweet Harmony Tabs
Tanya Tabs
Two Of A Kind Tabs
Used To Feel Before Tabs
Waste Of Time Tabs
With My Mind Tabs


Song lyrics



↑ Back to top | Tablatures and chords are parodies/interpretations of the original songs. You may use it for private study, scholarship, research or language learning purposes only
© 2014 AZChords.com Contact us | Privacy policy | DMCA | Add/correct tabs | Request tabs | Top 50 tabs