» » »

Passenger Tabs (ver.1)

Artists:  A B C D E F G H I J K L M N O P Q R S T U V W X Y Z # 

Passenger Tabs (ver.1)

Kings Of Convenience
Rating:
0/5 (0 votes)
Tabs too difficult? Try these video lessons and learn fast.
                
Tuning:  Standard EADGBE

There are only three chords in this song, though all of them are extended harmonies.
your pick down and use your fingers on everything.  You'll have to, anyway...

This song can't really be split into chorus and verse, so part of figuring where these
go will fall on the reader of this tablature.  These first two chords are what make up
bulk of the song.

E-----------|
B-2---0-----|
G-----------|
D-4---1-----|
A-----------|
E-4---0-----|

Implied harmonies:  G#m7 and Emaj7

These two chords make up the end of each verse.  Notice that the second one is the same
the second one up above!  Easy!  =)


E-----------|
B-4---0-----|
G-----------|
D-6---1-----|
A-----------|
E-6---0-----|

Implied harmonies:  A#m7 and Emaj7


Then we have the solo at the end.  I'm horrible at playing single-note lines, but this
not hard at all.  It helps that it's basically a repeated line 8 times with a bit of
the 6th and 8th times through.  The structure of the underlying guitar part fits the 
 the chords are mostly the top two, but the last couple chords in the solo are the second two.


E---------------------------------------|
B---------------------------------------|
G---------------------------------------|
D------------4-------7--6------4---4----|
A--6-7-6-------6-------------6-------6--|       play 5 times, then
E---------------------------------------|

E---------------------------------------|
B---------------------------------------|
G---------------------------------------|
D------------4-------7--6------4---4----|
A--6-7-6-------6-------------6----------|       play once
E---------------------------------------|

E---------------------------------------|
B---------------------------------------|
G---------------------------------------|
D------------4-------7--6------4---4----|
A--6-7-6-------6-------------6-------6--|       play once
E---------------------------------------|


E------------------------------------------------|
B------------------------------------------------|
G------------------------------------------------|
D------------4-6-----7--6------------------------|
A--6-7-6---------------------2----4----------6---|    END
E------------------------------------------------|


| /  slide up
| \  slide down
| h  hammer-on
| p  pull-off
| ~  vibrato
| +  harmonic
| x  Mute note
            
Tabs too difficult? Try these video lessons and learn fast.


comments powered by Disqus
↑ Back to top | Tablatures and chords are parodies/interpretations of the original songs. You may use it for private study, scholarship, research or language learning purposes only