» » »

Sorry Or Please Tabs (ver.1)

Artists:  A B C D E F G H I J K L M N O P Q R S T U V W X Y Z # 

Sorry Or Please Tabs (ver.1)

Kings Of Convenience
Rating:
0/5 (0 votes)

Hard to play? Try these video lessons and learn fast.
                (Solo)
Tuning: Standard



e|--2---------------------0----2--3--2----0--------------2---7----0----3---2-|
B|------3---2-----2--0----------------------3/5---3--------------------------|
G|---------------------------------------------------------------------------|
D|---------------------------------------------------------------------------|
A|---------------------------------------------------------------------------|
E|---------------------------------------------------------------------------|

e|---2---0-----0-------------------------------------------------------------|
B|-----------------3---------2-----------------------------------------------|
G|---------------------------------------------------------------------------|
D|---------------------------------------------------------------------------|
A|---------------------------------------------------------------------------|
E|---------------------------------------------------------------------------|


| /  slide up
| \  slide down
| h  hammer-on
| p  pull-off
| ~  vibrato
| +  harmonic
| x  Mute note
            
Hard to play? Try these video lessons and learn fast. | Correct




comments powered by Disqus
↑ Back to top | Tablatures and chords are parodies/interpretations of the original songs. You may use it for private study, scholarship, research or language learning purposes only