» » »

Parallel Lines Tabs (ver.1)

Artists:  A B C D E F G H I J K L M N O P Q R S T U V W X Y Z # 

Parallel Lines Tabs (ver.1)

Kings Of Convenience
Rating:
5/5 (3 votes)

Hard to play? Try these video lessons and learn fast.
                Basically just these three chords in the back all the way trough.
Listen to the song to get the strumming right.

    F#m7     C#m7    Emaj9
E|---x--------x--------x---|
B|---x--------5--------0---|
G|---2--------4--------1---|
D|---2--------6--------1---|
A|---4--------4--------2---|
E|---2--------x--------x---|


This is the picking part in the intro and ending.

E|---------0-----------------0----------------2----------------2-----------|
B|------2-----2----2------0-----0----0-----0-----0----0-----0-----0----0---|
G|---2-----------2-----1-----------1----4-----------4----4-----------4-----|
D|-------------------------------------------------------------------------|
A|-------------------------------------------------------------------------|
E|-------------------------------------------------------------------------|

The song ends with this in the end of the picking part.

E|---------4---|
B|------2------|
G|---2---------|
D|-------------|
A|-------------|
E|-------------|

This comes between the verses. Listen to the song to
get the strumming right.

E|--------------------------------------|
B|--------------------------------------|     \
G|---9/-------13/----11/--8/-------11---|      \   2x
D|--------------------------------------|      /
A|---7/-------11/----9/---6/-------9----|     /
E|--------------------------------------|


                 * * * * * * * * * * * * * * * * * * * *


Those who are familiar with the version of the song, where the piano
joins in the end, I managed to figure out those parts too.

E|-------------------------------------------------------------------|
B|---10--10--10--10--9---9---9---9---9---9---9---9---7---7---7---7---|
G|---9---9---9---9---9---9---9---9---8---8---8---8---8---8---8---8---|
D|-------------------------------------------------------------------|
A|-------------------------------------------------------------------|
E|-------------------------------------------------------------------|

E|--------------------------------------------------------------------------------|
B|---7--7--7--7--9--10--10--10--9--10--9------------9--10--12--12--12--9--12--9---|
G|----------------------------------------9--9--9---------------------------------|
D|--------------------------------------------------------------------------------|
A|--------------------------------------------------------------------------------|
E|--------------------------------------------------------------------------------|

Hope you understand these tabs, they're my first...
Enjoy learning the song!
            
Hard to play? Try these video lessons and learn fast. | Correct




comments powered by Disqus
↑ Back to top | Tablatures and chords are parodies/interpretations of the original songs. You may use it for private study, scholarship, research or language learning purposes only