>
 >
Halloween Town

Halloween Town Guitar Tabs

Kingdom Hearts - Halloween Town chords, tabs, tablatures, lyrics

Guitar lessons | Add/correct | Request | Top 50 tabs Artists:  A B C D E F G H I J K L M N O P Q R S T U V W X Y Z 0-9

Halloween Town Guitar Tabs – Kingdom Hearts

CD, Sheet music, Poster

Do you like Halloween Town? Share with your friends now
Tabs
listin guys i tried my best to make this as playable as possible since if
u included all the instruments the song would be to hard the bass is also kinda
melody so keep that in mind but basicly "guitar I" is stings but that
doesnt matter the strings are the lead guitar II is lead II and the harmoninca
in bass tabs is lead III but its not that necesarry so u can play it with out it
if need be..... happy playing ^^
  Q=85
 4/4
  Gtr I
  S S S S S S S S S S S S S S S S   S S S S S S S S S S S S S S S S
|---------------------------------|----------------------------------|
|---------------------------------|----------------------------------|
|---------------------------------|----------------------------------|
|-5---5---5---5---5---5---5---5---|-5---5---5---5---5---5---5---5----|
|-6---6---6---6---6---6---6---6---|-6---6---6---6---6---6---6---6----|
|---------------------------------|----------------------------------|
|
| Gtr II
| W                                 S S E   S S E   S S E   S S S S
|---------------------------------|----------------------------------|
|---------------------------------|-8-------8-------8-------8---9----|
|---------------------------------|----------------------------------|
|---------------------------------|----------------------------------|
|---------------------------------|----------------------------------|
|---------------------------------|----------------------------------|

  S S S S S S S S S S S S S S S S   S S S S S S S S S S S S S S S S
|---------------------------------|---------------------------------|
|---------------------------------|---------------------------------|
|---------------------------------|---------------------------------|
|-3---3---3---3---3---3---3---3---|-2---2---2---2---2---2---2---2---|
|-5---5---5---5---5---5---5---5---|-2---2---2---2---2---2---2---2---|
|---------------------------------|---------------------------------|
|
| S S E   S S E   S S E   S S S S   S S E   S S E   S S E   S S S S
|---------------------------------|---------------------------------|
|-6-------6-------6-------6---9---|-8-------8-------8-------8---9---|
|---------------------------------|---------------------------------|
|---------------------------------|---------------------------------|
|---------------------------------|---------------------------------|
|---------------------------------|---------------------------------|

  S S  S  S  S  S S S  S S  S S  S S  S S   S S S S S S S S S S  S S  Q
|-----20----------8-----------------------|-------------------------------|
|--------21---------8---------------------|-8---8---8---8---8-9-----------|
|-----------22----------------------------|---------------------10---10---|
|-3------------24-------------------------|-------------------------------|
|-3---------------8---10---10---10---10---|-------------------------------|
|-----------------8---10---10---10---10---|-------------------------------|
|
| S S  E     S  S S S  S S  E    S S  E     W
|-----------------------------------------|-------------------------------|
|-6----------6----9----8---------8----8---|-------------------------------|
|-----------------------------------------|-------------------------------|
|-----------------------------------------|-------------------------------|
|-----------------------------------------|-------------------------------|
|-----------------------------------------|-------------------------------|

   S S  S S  S S  S S  S S S S Q
|---------------------------------|
|------------------------8-9---8--|
|-10---10---10---10---10----------|
|---------------------------------|
|---------------------------------|
|---------------------------------|

  S S S S E  E  E  S S E E   S S S S S S  E E  E E E
|--------------------------|--------------------------|
|-8---8---8--9-11--9-8-6---|-6---6---6-8--9-8------8--|
|-8---8---8-10-12-10-8-7---|-7---7---7-8-10-8--8-7-7--|
|--------------------------|------------------10-9----|
|--------------------------|--------------------------|
|--------------------------|--------------------------|

   S S  S S  S  S  S S  S S  S S  S  S  S S
|--6----6----6------------------------------|
|--------------10------11---11---11-10------|
|--0----0----0----12----0----0----0----12---|
|-------------------------------------------|
|-------------------------------------------|
|--------------10-10----------------10-10---|
|
| Gtr II
|  S S  S S  S  S  S S  S S  S S  S  S  S S
|-------------------------------------------|
|-11---11---11-10--8---11---11---11-10--8---|
|-------------------------------------------|
|-------------------------------------------|
|-------------------------------------------|
|-------------------------------------------|

   S S  S S  S S S  S  S S  S S  E E
|-------------------------------------|
|-11----------------------------------|
|------10---10---8---------12---13----|
|------------------11-10--------------|
|-------------------------------------|
|-13----9----9---9--9--8---12---13----|
|
|  S S  S S  S S S  S  S S  S S  E E
|-------------------------------------|
|-11----6----6---4--2--1----8----9----|
|-------------------------------------|
|-------------------------------------|
|-------------------------------------|
|-------------------------------------|

   S S  S S  S  S  S S  S  S  S  S  S  S  S S
|---------------------------------------------|
|--------------11---------------------11------|
|-16---16---16----13---16-16-16-16-16----13---|
|---------------------------------------------|
|---------------------------------------------|
|-16---16---16-11-11---16-16-16-16-16-11-11---|
|
|  W
|---------------------------------------------|
|---------------------------------------------|
|---------------------------------------------|
|---------------------------------------------|
|---------------------------------------------|
|---------------------------------------------|

   S S  S S  S S  S  S  S S S S S S S S
|---------------------------------------|
|-12------------------------------------|
|--0---12---12---11---------------------|
|-------------------14-11---6---6---6---|
|---------------------------------------|
|------12---12---12-12--9---4---4---4---|
|
|  H                    S S S S S S S S
|---------------------------2-----------|
|-------------------------5---5-9-2-5---|
|-----------------------------------9-9-|
|---------------------------------------|
|---------------------------------------|
|---------------------------------------|

                            3/4
  S S S S Q  S S S S E S S    W
|--------------------------|-------------------|
|-4---4---5--4---4---5-4---|-------------------|
|-4---4---4--4---4---4-4---|-------------------|
|--------------------------|-------------------|
|--------------------------|-------------------|
|--------------------------|-------------------|
|
| S S S S Q  S S S S E S S    E E E  E E  S  S
|--------------------------|----6-6------------|
|-4---4---5--4---4---5-4---|-10-----10-9-10-12-|
|-5------------------------|-------------------|
|--------------------------|-------------------|
|--------------------------|-------------------|
|--------------------------|-------------------|

 4/4
  Gtr III
  Q.    E Q.   E   E E E E Q.    E
|----------------|-----------------|
|-2----10-9----7-|-4-2-4-7-9----11-|
|----------------|-----------------|
|----------------|-----------------|
|----------------|-----------------|
|----------------|-----------------|
|
| W                W
|----------------|-----------------|
|----------------|-----------------|
|----------------|-----------------|
|----------------|-----------------|
|----------------|-----------------|
|----------------|-----------------|

                                         Gtr I
   Q.    E  Q.    E   E  E  E  E  H      S S S S S S S S S S S S S S S S
|-------------------|------------------|----------------------------------|
|-------14-12----10-|-9-10-12-14-16----|-4---4---4-3-1---4---4---4-3-1----|
|-14----------------|------------------|----------------------------------|
|-------------------|------------------|----------------------------------|
|-------------------|------------------|----------------------------------|
|-------------------|------------------|----------------------------------|

                                     2/4                   4/4
  S S S S S S S S S S S S S S  S  S    W                    W
|-7-6-4---7-6-4---4-3-----4-3-------|---------------------|------|
|---------------------6--------6----|---------------------|------|
|-4-3-1---4-3-1---1-0-----1-0-------|---------------------|------|
|---------------------3--------3----|---------------------|------|
|-----------------------------------|---------------------|------|
|-----------------------------------|---------------------|------|
|
| Gtr II
| H               Q       E    S  S    S  S  S S S S S  S   W
|-----------------------------------|---------------------|------|
|-----------------------------------|----------1-6-8-9-11-|------|
|-----------------------------13-16-|-18-20-18------------|------|
|-----------------------------------|---------------------|------|
|-----------------------------------|---------------------|------|
|-----------------------------------|---------------------|------|

  W                           S S S S S S S S S S S S S S S S
|---------------------------|---------------------------------|
|---------------------------|---------------------------------|
|---------------------------|---------------------------------|
|---------------------------|-5---5---5---5---5---5---5---5---|
|---------------------------|-6---6---6---6---6---6---6---6---|
|---------------------------|---------------------------------|
|
| S S S S E S S  S S S S Q    S S E   S S E   S S E   S S S S
|---------------------------|---------------------------------|
|-4---4---4-2-0------4------|-8-------8-------8-------8---9---|
|---------------11-------9--|---------------------------------|
|---------------------------|---------------------------------|
|---------------------------|---------------------------------|
|---------------------------|---------------------------------|

  S S S S S S S S S S S S S S S S   S S S S S S S S S S S S S S S S
|---------------------------------|---------------------------------|
|---------------------------------|---------------------------------|
|---------------------------------|---------------------------------|
|-3---3---3---3---3---3---3---3---|-2---2---2---2---2---2---2---2---|
|-5---5---5---5---5---5---5---5---|-2---2---2---2---2---2---2---2---|
|---------------------------------|---------------------------------|
|
| S S E   S S E   S S E   S S S S   S S E   S S E   S S E   S S S S
|---------------------------------|---------------------------------|
|-6-------6-------6-------6---9---|-8-------8-------8-------8---9---|
|---------------------------------|---------------------------------|
|---------------------------------|---------------------------------|
|---------------------------------|---------------------------------|
|---------------------------------|---------------------------------|

  S S  S  S  S  S S S  S S  S S  S S  S S   S S S S S S S S S S  S S  Q
|-----20----------8-----------------------|-------------------------------|
|--------21---------8---------------------|-8---8---8---8---8-9-----------|
|-----------22----------------------------|---------------------10---10---|
|-3------------24-------------------------|-------------------------------|
|-3---------------8---10---10---10---10---|-------------------------------|
|-----------------8---10---10---10---10---|-------------------------------|
|
| S S  E     S  S S S  S S  E    S S  E     W
|-----------------------------------------|-------------------------------|
|-6----------6----9----8---------8----8---|-------------------------------|
|-----------------------------------------|-------------------------------|
|-----------------------------------------|-------------------------------|
|-----------------------------------------|-------------------------------|
|-----------------------------------------|-------------------------------|

   S S  S S  S S  S S  S S S S Q
|---------------------------------|
|------------------------8-9---8--|
|-10---10---10---10---10----------|
|---------------------------------|
|---------------------------------|
|---------------------------------|

  S S S S E  E  E  S S E E   S S S S S S  E E  E E E
|--------------------------|--------------------------|
|-8---8---8--9-11--9-8-6---|-6---6---6-8--9-8------8--|
|-8---8---8-10-12-10-8-7---|-7---7---7-8-10-8--8-7-7--|
|--------------------------|------------------10-9----|
|--------------------------|--------------------------|
|--------------------------|--------------------------|

   S S  S S  S  S  S S  S S  S S  S  S  S S
|--6----6----6------------------------------|
|--------------10------11---11---11-10------|
|--0----0----0----12----0----0----0----12---|
|-------------------------------------------|
|-------------------------------------------|
|--------------10-10----------------10-10---|
|
| Gtr II
|  S S  S S  S  S  S S  S S  S S  S  S  S S
|-------------------------------------------|
|-11---11---11-10--8---11---11---11-10--8---|
|-------------------------------------------|
|-------------------------------------------|
|-------------------------------------------|
|-------------------------------------------|

   S S  S S  S S S  S  S S  S S  E E
|-------------------------------------|
|-11----------------------------------|
|------10---10---8---------12---13----|
|------------------11-10--------------|
|-------------------------------------|
|-13----9----9---9--9--8---12---13----|
|
|  S S  S S  S S S  S  S S  S S  E E
|-------------------------------------|
|-11----6----6---4--2--1----8----9----|
|-------------------------------------|
|-------------------------------------|
|-------------------------------------|
|-------------------------------------|

   S S  S S  S  S  S S  S  S  S  S  S  S  S S
|---------------------------------------------|
|--------------11---------------------11------|
|-16---16---16----13---16-16-16-16-16----13---|
|---------------------------------------------|
|---------------------------------------------|
|-16---16---16-11-11---16-16-16-16-16-11-11---|
|
|  W
|---------------------------------------------|
|---------------------------------------------|
|---------------------------------------------|
|---------------------------------------------|
|---------------------------------------------|
|---------------------------------------------|

   S S  S S  S S  S  S  S S S S S S S S
|---------------------------------------|
|-12------------------------------------|
|--0---12---12---11---------------------|
|-------------------14-11---6---6---6---|
|---------------------------------------|
|------12---12---12-12--9---4---4---4---|
|
|  H                    S S S S S S S S
|---------------------------2-----------|
|-------------------------5---5-9-2-5---|
|-----------------------------------9-9-|
|---------------------------------------|
|---------------------------------------|
|---------------------------------------|

                            3/4
  S S S S Q  S S S S E S S    W
|--------------------------|-------------------|
|-4---4---5--4---4---5-4---|-------------------|
|-4---4---4--4---4---4-4---|-------------------|
|--------------------------|-------------------|
|--------------------------|-------------------|
|--------------------------|-------------------|
|
| S S S S Q  S S S S E S S    E E E  E E  S  S
|--------------------------|----6-6------------|
|-4---4---5--4---4---5-4---|-10-----10-9-10-12-|
|-5------------------------|-------------------|
|--------------------------|-------------------|
|--------------------------|-------------------|
|--------------------------|-------------------|

 4/4
  Gtr III
   Q.    E Q.   E   E E E E Q.    E
|-----------------|-----------------|
|-------10-9----7-|-4-2-4-7-9----11-|
|-14--------------|-----------------|
|-----------------|-----------------|
|-----------------|-----------------|
|-----------------|-----------------|
|
|  W                W
|-----------------|-----------------|
|-----------------|-----------------|
|-----------------|-----------------|
|-----------------|-----------------|
|-----------------|-----------------|
|-----------------|-----------------|

                                         Gtr I
   Q.    E  Q.    E   E  E  E  E  H      S S S S S S S S S S S S S S S S
|-------------------|------------------|----------------------------------|
|-------14-12----10-|-9-10-12-14-16----|-4---4---4-3-1---4---4---4-3-1----|
|-14----------------|------------------|----------------------------------|
|-------------------|------------------|----------------------------------|
|-------------------|------------------|----------------------------------|
|-------------------|------------------|----------------------------------|

                                     2/4                   4/4
  S S S S S S S S S S S S S S  S  S    W                    W
|-7-6-4---7-6-4---4-3-----4-3-------|---------------------|------|
|---------------------6--------6----|---------------------|------|
|-4-3-1---4-3-1---1-0-----1-0-------|---------------------|------|
|---------------------3--------3----|---------------------|------|
|-----------------------------------|---------------------|------|
|-----------------------------------|---------------------|------|
|
| Gtr II
| H               Q       E    S  S    S  S  S S S S S  S   W
|-----------------------------------|---------------------|------|
|-----------------------------------|----------1-6-8-9-11-|------|
|-----------------------------13-16-|-18-20-18------------|------|
|-----------------------------------|---------------------|------|
|-----------------------------------|---------------------|------|
|-----------------------------------|---------------------|------|

  Gtr II
  S S S S E S S  S S S S Q
|---------------------------*|
|-4---4---4-2-0------4------*|
|---------------11-------9--*|
|---------------------------*|
|---------------------------*|
|---------------------------*|





Comments


Popular Kingdom Hearts tabs & chords
Dearly Beloved Bass Tabs
Dearly Beloved 2 Tabs
Dearly Beloved 5 Tabs
Destiny Islands Theme Tabs
Hikari 1 Tabs
Hikari 2 Tabs
Hikari 3 Tabs
Lazy Afternoon Guitar Tabs
One Winged Angel Intro Tabs
Rising Sun Tabs


Song lyrics



↑ Back to top | Tablatures and chords are parodies/interpretations of the original songs. You may use it for private study, scholarship, research or language learning purposes only
© 2014 AZChords.com Contact us | Privacy policy | DMCA | Add/correct tabs | Request tabs | Top 50 tabs