» » »

King Diamond, Victimized Tabs (ver.3)

Artists:  A B C D E F G H I J K L M N O P Q R S T U V W X Y Z # 

Victimized Tabs (ver.3)

King Diamond Tabs
 Rating:
4/5 (4 votes)
Victimized lessons Tabs too difficult? Try these video lessons and learn fast
1
                #



@SONG: VICTIMIZED 
(Music by Andy LaRocque)

A little later in the day Mother and the Doctor went away
They left me lying on the floor
Heading for local church, no a trace of guilt in their eyes
The reverend Sammael, the venom of GOD himself
And so easy to convert

Conspiracy, I'm being victimized again

Knocking at the preacher's door
none of them were ever here before
Sammael, GOD in his eyes, leads them into the silent room
Oh such a holy gloom

Doctor: "Priest, do You remember King, the loony one
the one who killed his Grandma' up on the hill?"
Priest: "Yes I do"
#
Conspiracy

Doctor: "Now he's back, the loony one"

Talking to the preacher for a while
the Doctor turned him into a child
Sammael, GOD in his eyes, swallowed everything the Doctor said
Oh in the gloom of the night

Priest: "From what You tell Me we cannot save him
It could be Satan himselfg or some evil demon
Let us not waste any time, the demon might twist our minds
We must go and do what must be done"
*
Conspiracy, I am being victimized again...victimized

So they left the church, conspiracy of the cursed
Through the dark and the rain, the priest was mildly insane
A crucifix in his hand...Oh no...

Doctor: "Soon the house belongs to us My dear
and King will be gone forever, isn't it just heaven?"




VICTIMIZED 
(Music by Andy LaRocque)

Transcribed painstakingly on a very boring Friday night by Darren McLennan

Note: 	( ) Represent a harmony guitar.
   	/    Represents a slide up.
	\    And this if you haven't worked it out represents a slide down. 	

|---------------------------------------------------------------|E
|---------------------------------------------------------------|B
|---------12\11/12---9\7/9-----------12\11/12-------------------|G
|---------10\9/ 10---7\5/7-----------10\9/ 10-------------------|D
|-------------------------------------------------10----12------|A
|0---0-0---------------------0---0-0--------------8-----10------|E

|---------------------------------------------------------------|E
|---------------------------------------------------------------|B
|---------12\11/12---9\7/9-----------12\11/12-------------------|G
|---------10\9/ 10---7\5/7-----------10\9/ 10-----14------------|D
|-------------------------------------------------12-----10-----|A
|0---0-0---------------------0---0-0----------------------8-----|E


With keyboards.

|---------------------------------------------------------------|E
|---------------------------------------------------------------|B
|---------12\11/12---9\7/9----------12\11/12--------------------|G
|---------10\9/ 10---7\5/7----------10\9/ 10--------------------|D
|-------------------------------------------------10----12------|A
|0---0-0----- --------------0---0-0---------------8-----10------|E

|---------------------------------------------------------------|E
|---------------------------------------------------------------|B
|---------12\11/12---9\7/9----------12\11/12--------------------|G
|---------10\9/ 10---7\5/7----------10\9/ 10--- 14--------------|D
|-----------------------------------------------12-----10-------|A
|0---0-0----- --------------0---0-0---------------------8-------|E

|------------------------------------------------------------------------|E
|------------------------------------------------------------------------|B
|---6-------6--------6--------6----------6--------6----------------------|G
|--6-6-------6------7-7---------7-------6-6--------6---------------------|D
|-7---7------------8-------------------7---7---------2/3\2-0-3-2---------|A
|9-----9-9-9-----10----10--10---------9-----9-9-9----------------3--2/3\2|E

|---------------------------------------------------------------|E
|---------------------------------------------------------------|B
|---------12\11/12---9\7/9----------12\11/12--------------------|G
|---------10\9/ 10---7\5/7----------10\9/ 10--------------------|D
|-------------------------------------------------10----12------|A
|0---0-0--------------------0---0-0---------------8-----10------|E

|---------------------------------------------------------------|E
|---------------------------------------------------------------|B
|---------12\11/12---9\7/9----------12\11/12--------------------|G
|---------10\9/ 10---7\5/7----------10\9/ 10--- 14--------------|D
|-----------------------------------------------12-----10-------|A
|0---0-0--------------------0---0-0---------------------8-------|E


|--------------------------------------------------------------------|E
|--------------------------------------------------------------------|B
|--------------------------------------------------------------------|G
|------------4-----4------4----4---5--------------4-----4-----5---3--|D
|-----------------------------------------------------------------1--|A
|2--2-2-2--2---2-2----2-2----2---2----2--2-2-2--2---2-2---2-2-----1--|E

         A little later in the day Mother and the Doctor went away

|-----------------------------------------|E     There's a pick harmonic and a dive
|-----------------------------------------|B	which I couldn't be bothered to work out.
|-----------------------------------------|G
|------------4-----4-------4----4---5-----|D
|-----------------------------------------|A
|2--2-2-2--2---2-2----2-2----2---2--------|E

      They left me lying on the floor

|------------------------------------------------------------------------|E
|------------------------------------------------------------------------|B
|------------4-----4-------4----4---3-------------4-----4-----------4----|G
|-------------------------------------------------------------4-----5----|D
|2--2-2-2--2---2-2----2-2----2----2---2--2-2-2--2---2-2---2-2----2-------|A
|------------------------------------------------------------------------|E

           Heading for local church, no a trace of guilt in their eyes

|------------------------------------------------------------------------|E
|------------------------------------------------------------------------|B
|------------4-----4-------4----4---3-------------4-----4-----------4----|G
|-------------------------------------------------------------4-----5----|D
|2--2-2-2--2---2-2----2-2----2----2---2--2-2-2--2---2-2---2-2----2-------|A
|------------------------------------------------------------------------|E


            The reverend Sammael,          he's the venom of GOD himself

|-----------------------------------------------|E
|-----------------------------------------------|B
|------------4-------4---------------4----------|G
|----------------------------4-------5----------|D
|2--2-2-2--2-----2-2----2-2----2----------------|A
|-----------------------------------------------|E

                   And so easy to convert

|----------------------------------------------|E
|-(3)------------------------------------------|B
|--2----(5)--(4)--(2)--------------------------|G
|--------5----4----2------(5)--(4)--(2)--------|D
|--------------------------5-----3---2---------|A
|----------------------------------------------|E



|-------------------------------0--------------|E
|---------------------------------0------------|B
|-----------------------------------3----------|G
|---2-----------------------3------------------|D
|---0---------------------1--------------------|A
|----------------------------------------------|E

    Ah.................Conspiracy,

|---0-1-0--------------------------------------|E	Somebody work this bit out properly please! 
|-----------0-1--------------------------------|B	There should be a harmony to it as well.
|----------------1-2---------------------------|G
|----------------------------------------------|D
|----------------------------------------------|A
|----------------------------------------------|E


|----------------------------------------------|E
|-----------------------------------4----------|B
|-----------------------------------6---6------|G
|---2---------7--6--9--7--6-7----6--6---6------|D
|---0---------5--5--5--5--5-7----4--4---4------|A
|----------------------------------------------|E


    Ah..... I'm being victimized again

|--------------------------------------------------------------------|E
|--------------------------------------------------------------------|B
|--------------------------------------------------------------------|G
|------------4-----4------4----4---5--------------4-----4-----5---3--|D
|-----------------------------------------------------------------1--|A
|2--2-2-2--2---2-2----2-2----2---2----2--2-2-2--2---2-2---2-2-----1--|E

         

|-----------------------------------------|E     There's a lick here again
|-----------------------------------------|B	which I couldn't be bothered to work out.
|-----------------------------------------|G
|------------4-----4-------4----4---5-----|D
|-----------------------------------------|A
|2--2-2-2--2---2-2----2-2----2---2--------|E

      

|------------------------------------------------------------------------|E
|------------------------------------------------------------------------|B
|------------4-----4-------4----4---3-------------4-----4-----------4----|G
|-------------------------------------------------------------4-----5----|D
|2--2-2-2--2---2-2----2-2----2----2---2--2-2-2--2---2-2---2-2----2-------|A
|------------------------------------------------------------------------|E

        Knocking at the preacher's door none of them were ever here before


|------------------------------------------------------------------------|E
|------------------------------------------------------------------------|B
|------------4-----4-------4----4---3-------------4-----4-----------4----|G
|-------------------------------------------------------------4-----5----|D
|2--2-2-2--2---2-2----2-2----2----2---2--2-2-2--2---2-2---2-2----2-------|A
|------------------------------------------------------------------------|E

           Sammael, GOD in his eyes, leads them into the silent room
            
|-----------------------------------------------|E
|-----------------------------------------------|B
|------------4-------4---------------4----------|G
|----------------------------4-------5----------|D
|2--2-2-2--2-----2-2----2-2----2----------------|A
|-----------------------------------------------|E

                  Oh such a holy gloom
                   
|----------------------------------------------|E
|-(3)------------------------------------------|B
|--2----(5)--(4)--(2)--------------------------|G
|--------5----4----2------(5)--(4)--(2)--------|D
|--------------------------5-----3---2---------|A
|----------------------------------------------|E



|--------------------------------------------------------------------|E
|--------------------------------------------------------------------|B
|------7----------9--------7----------7---------9----8---------------|G
|-6----5----6-----7---6----5-----6----5----6----7----6----9----------|D
|-4---------4---------4----------4---------4--------------7----------|A
|--------------------------------------------------------------------|E

Dr: "Priest, do You remember King, the loony one

|--------------------------------------------------------------------|E
|--------------------------------------------------------------------|B
|------7----------9--------7----------7---------9----8---------------|G
|-6----5----6-----7---6----5-----6----5----6----7----6----9----------|D
|-4---------4---------4----------4---------4--------------7----------|A
|--------------------------------------------------------------------|E
            the one who killed his Grandma'      up on the

|---------------------------------------------------------------|E
|---------------------------------------------------------------|B
|---------12\11/12---9\7/9-----------12\11/12-------------------|G
|---------10\9/ 10---7\5/7-----------10\9/ 10-------------------|D
|-------------------------------------------------10----12------|A
|0---0-0---------------------0---0-0--------------8-----10------|E

 hill?"					Priest: "Yes I do"

|---------------------------------------------------------------|E
|---------------------------------------------------------------|B
|---------12\11/12---9\7/9-----------12\11/12-------------------|G
|---------10\9/ 10---7\5/7-----------10\9/ 10-----14------------|D
|-------------------------------------------------12-----10-----|A
|0---0-0---------------------0---0-0----------------------8-----|E


|---------------------------------------------------------------------|E
|---------------------------------------------------------------------|B
|---------------------------------------------------------------------|G
|----6---4--------------------------6---4---------------------4-------|D
|-------------7----6---4--------------------7-------6----7------------|A
|--4---4---4----4---------7-------4---4---4----4----------------------|E

|---------------------------------------------------------------------|E
|---------------------------------------------------------------------|B
|---------------------------------------------------------------------|G
|----4---2--------------------------6---4---------------------4-------|D
|-------------6----4---2--------------------7-------6----7------------|A
|--2---2---2----2---------5-------4---4---4----4----------------------|E

|-------------------------------------------------------|E
|-------------------------------------------------------|B
|-------------4------------------------4-----2----------|G
|-------4-----4------4----------4------4-----2----------|D
|-------4-----2------4----------4------2-----0----------|A
|-------2------------2----------2-----------------------|E

|---------------------------------------------------------------------|E
|---------------------------------------------------------------------|B
|---------------------------------------------------------------------|G
|----6---4--------------------------6---4---------------------4-------|D
|-------------7----6---4--------------------7-------6----7------------|A
|--4---4---4----4---------7-------4---4---4----4----------------------|E

|-----------------------------------------------------------------|E
|-----------------------------------------------------------------|B
|-----------------------------------------------------------------|G
|--12---11----12---11---10----12---11----12---11--12---14---12----|D
|--10----9----10----9----8----10----9----10----9--10---12---10----|A
|--10----9----10----9----8----10----9----10----9--10---12---10----|E

|------------------------------------------------------------------------|E
|------------------------------------------------------------------------|B
|---6-------6--------6--------6----------6--------6----------------------|G
|--6-6-------6------7-7---------7-------6-6--------6---------------------|D
|-7---7------------8-------------------7---7---------2/3\2-0-3-2---------|A
|9-----9-9-9-----10----10--10---------9-----9-9-9----------------3--2/3\2|E

 Ah.....Conspiracy        Ah...... Dr: "Now he's back, the loony one"

|--------------------------------------------------------------------|E
|--------------------------------------------------------------------|B
|--------------------------------------------------------------------|G
|------------4-----4------4----4---5--------------4-----4-----5---3--|D
|-----------------------------------------------------------------1--|A
|2--2-2-2--2---2-2----2-2----2---2----2--2-2-2--2---2-2---2-2-----1--|E

        

|----------------------------------------14-----------14--------|E    
|-------------------------------------------15------15--15------|B	
|---------------------------------------------16--16------16----|G
|------------4-----4-------4----4---5-----------16----------16--|D
|---------------------------------------------------------------|A
|2--2-2-2--2---2-2----2-2----2---2------------------------------|E

|------------------------------------------------------------------------|E
|------------------------------------------------------------------------|B
|------------4-----4-------4----4---3-------------4-----4-----------4----|G
|-------------------------------------------------------------4-----5----|D
|2--2-2-2--2---2-2----2-2----2----2---2--2-2-2--2---2-2---2-2----2-------|A
|------------------------------------------------------------------------|E

 Talking to the preacher for a while the Doctor turned him into a child

|------------------------------------------------------------------------|E
|------------------------------------------------------------------------|B
|------------4-----4-------4----4---3-------------4-----4-----------4----|G
|-------------------------------------------------------------4-----5----|D
|2--2-2-2--2---2-2----2-2----2----2---2--2-2-2--2---2-2---2-2----2-------|A
|------------------------------------------------------------------------|E

     Sammael, GOD in his eyes, swallowed everything the Doctor said
|-----------------------------------------------|E
|-----------------------------------------------|B
|------------4-------4---------------4----------|G
|----------------------------4-------5----------|D
|2--2-2-2--2-----2-2----2-2----2----------------|A
|-----------------------------------------------|E

	Oh in the gloom of the night             

|----------------------------------------------|E
|-(3)------------------------------------------|B
|--2----(5)--(4)--(2)--------------------------|G
|--------5----4----2------(5)--(4)--(2)--------|D
|--------------------------5-----3---2---------|A
|----------------------------------------------|E
     

|-----------------------------------------------------------------|E
|-8--8----------7--7-----------5--5-----------7--7----------------|B
|-5--5----------5--5-----------2--2-----------5--5----------------|G
|-----------------------------------------------------------------|D
|-----0-0-0-0-0------0-0-0-0-0------0-0-0-0-0-----0-0-0-0-0-------|A
|-----------------------------------------------------------------|E
Priest: "From what You tell Me we cannot save him


|-----------------------------------------------------------------|E
|-6--6----------5--5-----------3--3-----------5--5----------------|B
|-5--5----------5--5-----------2--2-----------5--5----------------|G
|-----0-0-0-0-0------0-0-0-0-0------0-0-0-0-0------0-0-0-0-0------|D
|-----------------------------------------------------------------|A
|-----------------------------------------------------------------|E

           It could be Satan himself or some evil demon

|-----------------------------------------------------------------|E
|-8--8----------7--7-----------5--5-----------7--7----------------|B
|-5--5----------5--5-----------2--2-----------5--5----------------|G
|-----------------------------------------------------------------|D
|-----0-0-0-0-0------0-0-0-0-0------0-0-0-0-0-----0-0-0-0-0-------|A
|-----------------------------------------------------------------|E

  Let us not waste any time, the demon might twist our minds

|-----------------------------------------------------------------|E
|-6--6----------5--5-----------3--3-----------5--5----------------|B
|-5--5----------5--5-----------2--2-----------5--5----------------|G
|-----0-0-0-0-0------0-0-0-0-0------0-0-0-0-0------0-0-0-0-0------|D
|-----------------------------------------------------------------|A
|-----------------------------------------------------------------|E

              We must go and do what must be done"

|---------------------------------------------------|E
|---------------------------------------------------|B
|---------------------------------------------------|G
|---------------------------------------------------|D
|--3--5--8--8---3---3--5--8--8---10-----------------|A
|--1--3--6--5---1---1--3--6--5----8-----------------|E

|---------------------------------------------------|E
|---------------------------------------------------|B
|---------------------------------------------------|G
|---------------------------------------------------|D
|--3--5--8--8---3---3--5--8--8---10-----------------|A
|--1--3--6--5---1---1--3--6--5----8-----------------|E

|------------------------------------------------------------|E
|------------------------------------------------------------|B
|------------------------------------------------------------|G
|------------------------------------------------------------|D
|---3-----8---5---------5---------5---------5----------------|A
|---1-----6---3---3-3---3---3-3---3---3-3---3----3-3---------|E


|------------------------------------------------------------|E
|------------------------------------------------------------|B
|------------------------------------------------------------|G
|------------------------------------------------------------|D
|---3-----8---3---------3---------3---------3----------------|A
|---1-----6---1---1-1---1---1-1---1---1-1---1----1-1---------|E


|------------------------------------------------------------|E
|------------------------------------------------------------|B
|------------------------------------------------------------|G
|------------------------------------------------------------|D
|---3-----8---5---------5---------5---------5----------------|A
|---1-----6---3---3-3---3---3-3---3---3-3---3----3-3---------|E


|------------------------------------------------------------|E
|------------------------------------------------------------|B
|------------------------------------------------------------|G
|------------------------------------------------------------|D
|---3-----8---3---------3---------3---------3----------------|A
|---1-----6---1---1-1---1---1-1---1---1-1---1----1-1---------|E

|----------------------------------------------------------------------|E
|----------------------------------------------------------------------|B
|----------------------------------------------------------------------|G
|--------8--------8----------8---------8--3--------3--------3--------3-|D
|--3--8--6--6--6--6----6--6--6--6--6---6--1--1--1--1--1--1--1--1--1--1-|A
|--1--6----------------------------------------------------------------|E

|----------------------------------------------------------------|E
|----------------------------------------------------------------|B
|--------4--4-----------4------------4--4-----------4------------|G
|-----4--------4----4------4-----4--------4-----4-------4--------|D
|---2-------------0----------------------------------------------|A
|-----------------------------3--------------2-------------------|E

|----------------------------------------------------------------|E
|----------------------------------------------------------------|B
|--------4--4-----------4------------4--4-----------4------------|G
|-----4--------4----4------4-----4--------4-----4-------4--------|D
|---2-------------0----------------------------------------------|A
|-----------------------------3--------------2-------------------|E

|----------------------------------------------------------------|E
|----------------------------------------------------------------|B
|--------4--4-----------4------------4--4-----------4------------|G
|-----4--------4----4------4-----4--------4-----4-------4--------|D
|---2-------------0----------------------------------------------|A
|-----------------------------3--------------2-------------------|E

		Ah........ Conspiracy
	
|----------------------------------------------------------------|E
|----------------------------------------------------------------|B
|--------4--4-----------4------------4--4-----------4------------|G
|-----4--------4----4------4-----4--------4-----4-------4--------|D
|---2-------------0----------------------------------------------|A
|-----------------------------3--------------2-------------------|E

		Ah........ Conspiracy


|----------------------------------------------------------------------|E
|--------------------------4-------------------------------------------|B
|--------------------------6--6---------5---5---5----4---4---4---------|G
|--7---6---9--7---6---7----6--6---6-----5---5---5----4---4---4---------|D
|--5---5---5--5---5---7----4--4---4-----3---3---3----2---2---2---------|A
|---------------------------------------3---3---3----2---2---2---------|E

            I am being victimized again....................victimized


|--------------------------------------------------------------|E
|--------------------------------------------------------------|B
|--------7-------------------------------7---------------------|G
|------9---9-10--7-9-----7-------------9---10--9---------------|D
|-7-10----------------10---10--9--7-10-------------------------|A
|-------------------------------------------------8--7---------|E

|--------------------------------------------------------------|E
|--------------------------------------------------------------|B
|--------7-------------------------------7---------------------|G
|------9---9-10--7-9-----7-------------9---10--9---------------|D
|-7-10----------------10---10--9--7-10-------------------------|A
|-------------------------------------------------8--5---------|E

|--------------------------------------------------------------|E
|--------8-------------------------------8---------------------|B
|------9---9-10-7-9------7-------------9---10--9---------------|G
|-7-10----------------10---10--9--7-10-------------------------|D
|------------------------------------------------8--7----------|A
|--------------------------------------------------------------|E

|--------------------------------------------------------------|E
|--------------------------------------------------------------|B
|--------7-------------------------------7---------------------|G
|------9---9-10--7-9-----7-------------9---10--9---------------|D
|-7-10----------------10---10--9--7-10-------------------------|A
|-------------------------------------------------8--7---------|E

|--------------------------------------------------------------|E
|--------------------------------------------------------------|B
|--------7-------------------------------7---------------------|G
|------9---9-10--7-9-----7-------------9---10--9---------------|D
|-7-10----------------10---10--9--7-10-------------------------|A
|-------------------------------------------------8--5---------|E


|----------------------------------------------------------------|E
|----------------------------------------------------------------|B
|----------------------------------------------------------------|G
|---------8--7---------8--7--------8--7--10--8--7--8-------------|D
|-------------------------------------------------------10-------|A
|-5--5--5--5---5--5--5--5---5--5--5--5---------------------------|E

                         So they left the church

|----------------------------------------------------------------|E
|----------------------------------------------------------------|B
|----------------------------------------------------------------|G
|--------8--7----------8--7--------8--7--10--8--7--8-------------|D
|-5--5--5--5---5--5--5--5---5--5--5--5------------------10-------|A
|----------------------------------------------------------------|E

                        conspiracy of the cursed

|----------------------------------------------------------------|E
|----------------------------------------------------------------|B
|----------------------------------------------------------------|G
|--------8--7---------8--7---------8--7--10--8--7--8-------------|D
|-------------------------------------------------------10-------|A
|-6--6--6--6---6--6--6--6---6--6--6--6---------------------------|E

                  Through the dark and the rain,

|----------------------------------------------------------------|E
|----------------------------------------------------------------|B
|----------------------------------------------------------------|G
|--------8--7---------8--7---------8--7--10--8--7--8-------------|D
|-6--6--6--6---6--6--6--6---6--6--6--6------------------10-------|A
|----------------------------------------------------------------|E

		the priest was mildly insane

|----------------------------------------------------------------|E
|----------------------------------------------------------------|B
|----------------------------------------------------------------|G
|--------8--7---------8--7---------8--7---------8--7-------------|D
|----------------------------------------------------------------|A
|-7--7--7--7---7--7--7--7---8--8--8--8---8--8--8--8--------------|E

   A crucifix ...............................in his

|-------------------------------------------------------------------|E
|-------------------------------------------------------------------|B
|-------------------------------------------------------------------|G
|--------8--7---------8--7---------8--7--10--8--7--8--7-------------|D
|-5--5--5--5---5--5--5--5---5--5--5--5--------------------10--------|A
|-------------------------------------------------------------------|E

   hand...................................Oh no...

|--------------------------------------------------------------|E
|--------------------------------------------------------------|B
|--------7-------------------------------7---------------------|G
|------9---9-10--7-9-----7-------------9---10--9---------------|D
|-7-10----------------10---10--9--7-10-------------------------|A
|-------------------------------------------------8--7---------|E

|--------------------------------------------------------------|E
|--------------------------------------------------------------|B
|--------7-------------------------------7---------------------|G
|------9---9-10--7-9-----7-------------9---10--9---------------|D
|-7-10----------------10---10--9--7-10-------------------------|A
|-------------------------------------------------8--5---------|E

|--------------------------------------------------------------|E
|--------8-------------------------------8---------------------|B
|------9---9-10-7-9------7-------------9---10--9---------------|G
|-7-10----------------10---10--9--7-10-------------------------|D
|------------------------------------------------8--7----------|A
|--------------------------------------------------------------|E

           Doctor: "Soon the house belongs to us My dear

|--------------------------------------------------------------|E
|--------------------------------------------------------------|B
|--------7-------------------------------7---------------------|G
|------9---9-10--7-9-----7-------------9---10--9---------------|D
|-7-10----------------10---10--9--7-10-------------------------|A
|-------------------------------------------------8--7---------|E

	   and King will be gone forever

|--------------------------------------------------------------|E
|--------------------------------------------------------------|B
|--------7-------------------------------7---------------------|G
|------9---9-10--7-9-----7-------------9---10--9---------------|D
|-7-10----------------10---10--9--7-10-------------------------|A
|-------------------------------------------------8--7---------|E
			
		isn't it just heaven?"

|---------------------------------------------------------------------|E
|---------------------------------------------------------------------|B
|---------------------------------------------------------------------|G
|----------------------------------------------------------------9-9\-|D
|----------9--9---------7--7-----------5--5---------4--4--2-2-2--7-7\-|A
|-7--7--7--7--7--5---5--5--5--3--3--3--3--3--2---2--2--2--0-0-0-------|E
	
	So there you have it, a rough version of victimized.  It's probably
 my favourite song off of  "Conspiracy" because of the really cool riff at
the end.  It's a real bastard to get up to speed at times.  Note that the 
first part of it is alternate picking, but the second part (where the vocals
are: So they left the church...) try to do with just down picking in time
with the CD.  It sounds much more crispier and chunky if you can do it that
way.  If you can't manage to get the pace up, do it with alternate picking 
but watch out for the string noise.  If anyone can fill out the solos for me
I'd be pretty gratefull.
	I haven't had time to do it myself because my guitar is roughly 500
kilometres away from me at this moment, so I was doing it all by memory.  I
think a few pieces may be wrong, the "from what you tell me... we 
cannot save him etc" part may be one of them, it was pretty hard trying to 
judge them without my guitar.  Lookout for the next installment which will 
probably be Halloween, The Portrait or Dressed in White off of the Fatal 
Portrait albumn or Behind These Walls, or Eye of the Witch off of The Eye.
	KEEP SHREDDING GUYS,  Darren McLennan.
            
Submit corrections

comments powered by Disqus
↑ Back to top | King Diamond Tabs for Victimized. Lyrics for acoustic guitar and electric guitar. 1 Tablatures and chords are parodies/interpretations of the original songs. You may use it for private study, scholarship, research or language learning purposes only