» » »

King Diamond, Arrival Bass tabs (ver.1)

Artists:  A B C D E F G H I J K L M N O P Q R S T U V W X Y Z # 

Arrival Bass tabs (ver.1)

King Diamond Tabs
 Rating:
4/5 (4 votes)
Arrival lessons Tabs too difficult? Try these video lessons and learn fast
                KING DIAMOND - Abigail

Bass tab by Andre Couto (aka "Andre The Wizard (murder in the rue morgue)")


note: "*"s are used to represent the same note X times (listen to the song).

                                                                        
G------------------------------------7--9-------------------------------
D------------------------------7--9--------------------------9--10------
A---7--7--7--7--7--7--7--7--7--------------7--7--7--7--7--7-------------
E-----------------------------------------------------------------------
                                                                        
G------|----------------------------------------------------------------
D---9--|--------------------------------------------------------9-------
A------|--7--7--7--7--7--7--7--7--7--7--7--7--7--7--7--7--7--7----------
E------|----------------------------------------------------------------
                                                                        
G----------|-----------------------------------------||
D---10--9--|-----------------------------------------|| "That must be it"
A----------|--------------------------------3--------||
E----------|--6--5--3--0-----3--5--6--5--3--------3--||

   2times       1. (2times)          2.
G--------------|-------------|-------|--------------||
D--------------|-------------|-------|--------------||
A--------------|-------------|-----5-|--------------||
E--5h7-7-7-7-7-|-8p7-7-7-7-7-|-\5----|-8-7-7--8-7-7-||
  
G-------------------------|------------------------||
D-------------------------|------------------------||
A-------------------------|----------------------5-||
E--4*----2--5----4*----2--|--4*----2--5----4*------||

G-------------------------|------------------------||
D-------------------------|------------------------||
A-------------------------|----------------------7-||
E--6*----4--7----6*----4--|--6*----4--7----6*------||


  "Through the summer rain..."     2nd time ending
G--------------------------------|---------------------||
D--------------------------------|---------------------||
A--------2*----------------------|-7-7--5-5--3-3--0----||
E--1*----------1*----3*----5*----|---------------------||

  "People blame it on the hill..."
G-----------------------------------------------------------||
D-----------------------------------------------------------||
A--------------7--8--7--6--7--6--7--8--7--5--6--7--5--6--7--||
E--1*----3*-------------------------------------------------||

   "They were in for a surprise..."
G------------------------------------------------||-----------
D------------------------------------------------||--5--6--5--
A---7--8--7--6--7--6--7--8--7--5--6--7--5--6--7--||-----------
E------------------------------------------------||-----------
                                                                        
G---------------------------------------------|-------------------------
D------4--5--4--5--6--5-----3--4--5--3--4--5--|--7--8--7-----6--7--6----
A---------------------------------------------|-------------------------
E---------------------------------------------|-------------------------

G---------------------------------||----||--9-9-9-9-9--------9-9-9-9-9--||
D---7--8--7-----5--6--7--5--6--7--||----||------------------------------||
A---------------------------------||----||---------------7*-------------||
E---------------------------------||--7-||------------------------------||

  "Take our advice and..."                                        
G------------------------------9-9-9-9-9--|
D-----------------------------------------|
A-----------------------------------------|
E--5--7--8--10--8--7--5--7--8-------------|

  "18 is 9"                             1.          2.
G--------------------------------------|----5-5-4--|-----5------7-||
D--------------------------------------|-----------|---5------7---||
A--3-3-3-2-3----2-3-2-3-2-0-2-2-2-0-2--|-3---------|-3------5-----||
E--------------------------------------|-----------|--------------||

G---------------------|--------||------------||
D---------------------|--------||--------5-5-||
A------8-8-----8-8-7\-|--------||---2--------||
E--0-0-----0-0--------|--0*----||------------||

 (5:10)
G----------------------------------------------------||
D-5-6-7-6-5-5--3-4-5-4-3-3--1--2------------3--5--8--||
A----------------------------------------------------||
E----------------------------------------------------||

   end
G-------------------||
D-------------------||
A--7-8-7--6-7-6-7\--||
E-------------------||
            
Submit corrections

comments powered by Disqus
↑ Back to top | King Diamond Bass for Arrival. Lyrics for acoustic guitar and electric guitar. Tablatures and chords are parodies/interpretations of the original songs. You may use it for private study, scholarship, research or language learning purposes only