>
 >
Arrival 1

Arrival 1 Guitar Tabs

King Diamond - Arrival 1 chords, tabs, tablatures, lyrics

Guitar lessons | Add/correct | Request | Top 50 tabs Artists:  A B C D E F G H I J K L M N O P Q R S T U V W X Y Z 0-9

Arrival 1 Guitar Tabs – King Diamond

CD, Sheet music, Poster

Do you like Arrival 1? Share with your friends now
Bass TabsTabsTabs v2


Arrival from King Diamond's Abigail.  My prefered song of King Diamond.
I had to transcribe it!  So here it is, enjoy!

E |------------------------------------|-------------------------|
B |---------------10-------------------|-----------12---13---12--|
G |o-9---9---11-12--12-11-9-11---11-12-|-9--9-11-12-------------o|
D |o-----------------------------------|------------------------o|
A |------------------------------------|-------------------------|
E |------------------------------------|-------------------------|
  |
E |------------------------------------|-------------------------|
B |------------------------------------|-------------------------|
G |o-----------------------------------|------------------------o|
D |o-----------------------------------|------------------------o|
A |--2--2-2-2----2-2-2----2-2-2----2-2-|-2--222-22-2----3----2---|
E |--0--0-0-0----0-0-0----0-0-0----0-0-|-0--000-00---------------|
     PM------------------------------/   PM------/


E |---------------------------|-----------------------|
B |-11--11--10-------------10-|-11--11--10----13------|
G |------------12-9--9--12----|------------12-----12--|
D |---------------------------|-----------------------|
A |---------------------------|-----------------------|
E |---------------------------|-----------------------|
  |
E |---------------------------|-----------------------|
B |---------------------------|-----------------------|
G |---------------------------|-----------------------|
D |---------------------------|-----------------------|
A |-1---1---0--------------0--|-1---1---0-----3-------|
E |------------3--0--0--3-----|------------3-----3----|

Redo the first 2 bars (repeated again) then :

E |---------------------------|-----------------------|
B |-11--11--10-------------10-|-11--11--10----13------|
G |------------12-9--9--12----|------------12---------|
D |---------------------------|-----------------------|
A |---------------------------|-----------------------|
E |---------------------------|-----------------------|
  |
E |---------------------------|-----------------------|
B |---------------------------|-----------------------|
G |---------------------------|-----------------------|
D |---------------------------|-----------------------|
A |-1---1---0--------------0--|-1---1---0-----3-------|
E |------------3--0--0--3-----|------------3----------|
                                              That Must Be It!
                                                                          P
E |-------------------|-------------------|-------------------|----------/\-|
B |-------------------|-------------------|-------------------|-12-----10-8-|
G |-------------------|-----------9-------|-------------------|---11-12-----|
D |-9-----------------|-12----------------|-9-----------------|-------------|
A |-------------------|-------------------|-------------------|-------------|
E |-------------------|-------------------|-------------------|-------------|
  |
E |-------------------|-------------------|-------------------|-------------|
B |-------------------|-------------------|-------------------|-------------|
G |-------------------|---------------7---|-------------------|-5-4-2--5--4-|  
D
|-------------------|---------------7---|-------------------|-5-4-2--5--4-|     
A |-------------------|---------------5---|-------------------|-3-2-0--3--2-|
E |-0--0-0-0-0--0-0-0-|-0--0-0-0-0--0-----|-0--0-0-0-0--0-0-0-|-------------|
    PM------------------------------/       PM--------------/
                                        
                                   H  P
E |-------------------|------------/\/\---|-------------------|12-----------|
B |-------------------|-------10--8-10-8--|-------------------|--12---------|
G |-9-------9--8-9--11|12-----------------|-9---------9-11-12-|----11-9-11-12
D |-------------------|---\9--------------|-------------------|-------------|
A |-------------------|--sl.--------------|-------------------|-------------|
E |-------------------|-------------------|-------------------|-------------|
  |
E |-------------------|-------------------|-------------------|-------------|
B |-------------------|-------------------|-------------------|-------------|
G |-------------------|---------------7---|-------------------|-5-4-2--7--6-|  
D
|-------------------|---------------7---|-------------------|-5-4-2--7--6-|     
A |-------------------|---------------5---|-------------------|-3-2-0--5--4-|
E |-0--0-0-0-0--0-0-0-|-0--0-0-0-0--0-----|-0--0-0-0-0--0-0-0-|-------------|
    PM------------------------------/       PM--------------/


E |---------------------|-----------------|--------------------|------------|
B |-(end of solo)(*)----|-----------------|--------------------|------------|
G |o12(B)---------------|-----------------|--------------------|-----------o|
D |o6---------------6---|-------6---4---7-|-6--------------6---|-------6--4o|
A |-6---6-6-6-6-6-6-6---|-6-6-6-6---4---7-|-6--6-6-6-6-6-6-6---|-6-6-6-6--4-|
E |-4---4-4-4-4-4-4-4---|-4-4-4-4---2---5-|-4--4-4-4-4-4-4-4---|-4-4-4-4--2-|
        PM--------/       PM---/               PM--------/       PM---/
(*) There's another solo that begins here and finish before King begin to
sing.  It isn't transcribed yet because I haven't got enough time!

E |---------------------|-----------------|--------------------|------------|
B |---------------------|-----------------|--------------------|------------|
G |---------------------|-----------------|--------------------|------------|
D |-8---------------8---|-------8---6---9-|-8--------------8---|-------8--6-|
A |-8---8-8-8-8-8-8-8---|-8-8-8-8---6---9-|-8--8-8-8-8-8-8-8---|-8-8-8-8--6-|
E |-6---6-6-6-6-6-6-6---|-6-6-6-6---4---7-|-6--6-6-6-6-6-6-6---|-6-6-6-6--4-|
        PM---------/      PM---/              PM----------/      PM---/


E |---------------------|-----------------|--------------------|------------|
B |---------------------|-----------------|--------------------|------------|
G |---------------------|-----------------|--------------------|----------10|
D |-8---------------8---|-------8---6---9-|-8--------------8---|-------8--9-|
A |-8---8-8-8-8-8-8-8---|-8-8-8-8---6---9-|-8--8-8-8-8-8-8-8---|-8-8-8-8--8-|
E |-6---6-6-6-6-6-6-6---|-6-6-6-6---4---7-|-6--6-6-6-6-6-6-6---|-6-6-6-6----|
        PM--------/       PM---/               PM---------/      PM---/


E |------------------------|-----------------------|------------------------|
B |------------------------|-----------------------|------------------------|
G |------------------------|-----------------------|------------------------|
D |------------------------|-----------------------|------------------------|
A |------------------------|-----------------------|-2-2-2-2-2-2-2-2-2-2-2-2|
E |-1-1-1-1-1-1-1-1-1-1-1-1|1-1-1-1-1-1-1-1-1-1-1-1|------------------------|
    PM through-out the verse
    Through the summer rain...

E |------------------------|-----------------------|------------------------|
B |------------------------|-----------------------|------------------------|
G |------------------------|-----------------------|------------------------|
D |------------------------|-----------------------|------------------------|
A |-2-2-2-2-2-2-2-2-2-2-2-2|-----------------------|------------------------|
E |------------------------|1-1-1-1-1-1-1-1-1-1-1-1|3-3-3-3-3-3-3-3-3-3-3-3-|


E |-------------------------|-------------------------|
B |-------------------------|-------------------------|
G |-------------------------|-------------------------|
D |-------------------------|-------------------------|
A |-------------------------|-------------------------|
E |-5-5-5-5-5-5-5-5-5-5-5-5-|-5-5-5-5-5-5-5-5-5-5-5-5-|


E |------------------------|------------------------|------------------------|
B |------------------------|------------------------|------------------------|
G |------------------------|------------------------|------------------------|
D |------------------------|------------------------|------------------------|
A |------------------------|------------------------|2-2-2-2-2-2-2-2-2-2-2-2-|
E |-1-1-1-1-1-1-1-1-1-1-1-1|1-1-1-1-1-1-1-1-1-1-1-1-|------------------------|
    Through the valley where.....

E |------------------------|-----------------------|------------------------|
B |------------------------|-----------------------|------------------------|
G |------------------------|-----------------------|------------------------|
D |------------------------|-----------------------|------------------------|
A |-2-2-2-2-2-2-2-2-2-2-2-2|-----------------------|------------------------|
E |------------------------|1-1-1-1-1-1-1-1-1-1-1-1|3-3-3-3-3-3-3-3-3-3-3-3-|


E |------------------------|-----------------------|------------------------|
B |------------------------|-----------------------|------------------------|
G |------------------------|-----------------------|------------------------|
D |------------------------|-----------------------|------------------------|
A |------------------------|-----------------------|------------------------|
E |-5-5-5-5-5-5-5-5-5-5-5-5|5-5-5-5-5-5-5-5-5-5-5-5|1-1-1-1-1-1-1-1-1-1-1-1-|


E |-------------------------|-------------------|------------------|
B |-------------------------|-------------------|------------------|
G |-------------------------|-------------------|------------------|
D |-------------------------|-2--------3--------|-2--------1--2--1-|
A |-------------------------|-2--------3--------|-2--------1--2--1-|
E |-3-3-3-3-3-3-3-3-3-3-3-3-|-0--0-0-0-1--1-1-1-|-0--0-0-0---------|
                                 PM--/    PM--/     PM-----------/

E |-------------------|-------------------|-------------------|-------------|
B |-------------------|-------------------|-------------------|-------------|
G |-------------------|-------------------|-------------------|-------------|
D |-2--------3--------|-2--0--1--2--1--0--|-2--------3--------|-2------1-2-1|
A |-2--------3--------|-2--0--1--2--1--0--|-2--------3--------|-2------1-2-1|
E |-0--0-0-0-1--1-1-1-|-------------------|-0--0-0-0-1--1-1-1-|-0--000------|
       PM--/    PM--/   PM--------------/     PM---/    PM---/     PM------/

E |-------------------|-------------------|
B |-------------------|-------------------| Redo all the rhythms from the 
G |-------------------|-------------------| beginning of the verse to here.
D |-2--------3--------|-2--0--1--2--1--0--|
A |-2--------3--------|-2--0--1--2--1--0--|
E |-0--0-0-0-1--1-1-1-|-------------------|
       PM---/   PM--/   PM-------------/

E |-------------------|------------------|-------------------|-------------|
B |-------------------|------------------|-------------------|-------------|
G |-------------------|------------------|-------------------|-------------|
D |-5--------6--------|-5--------4--5--4-|-5--------6--------|-5-3-4-5-4-3-|
A |-5--------6--------|-5--------4--5--4-|-5--------6--------|-5-3-4-5-4-3-|
E |-3--3-3-3-4--4-4-4-|-3--3-3-3-2--3--2-|-3--3-3-3-4--4-4-4-|-3-1-2-3-2-1-|
      PM----/   PM--/      PM----------/      PM--/    PM--/   PM---------/
(*) Idem as above, I haven't had the time to transcribed the solo yet.

E |-------------------|------------------|-------------------|-------------|
B |-------------------|------------------|-------------------|-------------|
G |-------------------|------------------|-------------------|-------------|
D |-5--------6--------|-5--------4--5--4-|-5--------6--------|-5-3-4-5-4-3-|
A |-5--------6--------|-5--------4--5--4-|-5--------6--------|-5-3-4-5-4-3-|
E |-3--3-3-3-4--4-4-4-|-3--3-3-3-2--3--2-|-3--3-3-3-4--4-4-4-|-3-1-2-3-2-1-|
       PM---/  PM---/      PM----------/      PM---/   PM--/   PM--------/

E |-------------------|------------------|-------------------|-------------|
B |-------------------|------------------|-------------------|-------------|
G |-------------------|------------------|-------------------|-------------|
D |-7--------8--------|-7--------6--7--6-|-7--------8--------|-7-5-6-7-6-5-|
A |-7--------8--------|-7--------6--7--6-|-7--------8--------|-7-5-6-7-6-5-|
E |-5--5-5-5-6--6-6-6-|-5--5-5-5-4--5--4-|-5--5-5-5-6--6-6-6-|-5-3-4-5-4-3-|
       PM---/   PM---/     PM-----------/     PM---/   PM---/  PM--------/

E |-----------------|----------------|-----------------|-------------|----|
B |-----------------|----------------|-----------------|-------------|----|
G |-----------------|----------------|-----------------|-------------|sl.-|
D |-7-------8-------|-7--------6-7-6-|-7-------8-------|-7-5-6-7-6-5-|-/9-|
A |-7-------8-------|-7--------6-7-6-|-7-------8-------|-7-5-6-7-6-5-|-/9-|
E |-5-5-5-5-6-6-6-6-|-5--5-5-5-4-5-4-|-5-5-5-5-6-6-6-6-|-5-3-4-5-4-3-|-/7-|
      PM---/ PM---/      PM--------/     PM---/  PM---/  PM--------/
                                                                      4 times
E |---------------|---------------|-------------|---------|--------|--------|
B |---------------|-3-------------|-------------|---------|--------|--------|
G |o2----4----5---|------5----4---|-2----4----5-|---------|--------|-------o|
D |o2----2----2---|-2----2----2---|-2----2----2-|---9-9-9-|-9-9-9--|--9-9-9o|
A |---00---00---0-|---00---00---0-|---00---00---|---7-7-7-|-8-8-8--|--7-7-7-|
E |---------------|---------------|-------------|---------|--------|--------|
      PM   PM   PM    PM   PM   PM    PM   PM

E |-------------------------|--------------------|------------------------|
B |-------------------------|--------------------|------------------------|
G |-------------------------|--------------------|------------------------|
D |-5-5-5-4-5---4-5-4-5-4-2-|-4-4-4-2-4---5--5-4-|-5-5-5-4-5--4-5-4-5-4-2-|
A |-3-3-3-2-3---2-3-2-3-2-0-|-2-2-2-0-2---3--3-2-|-3-3-3-2-3--2-3-2-3-2-0-|
E |-------------------------|--------------------|------------------------|
    PM----/     PM------/     PM-----/             PM----/    PM------/

E |--------------------|----------------------------|-------------|---------|
B |--------------------|----------------------------|-------------|---------|
G |--------------5---7-|--10-10-10-10---10-10-10-10-|-------------|---------|
D |-4-4-4-2-4---5---7--|--9--9--9--9----9--9--9--9--|-(Drum Fill)-|---------|
A |-2-2-2-0-2--3---5---|--8--8--8--8----8--8--8--8--|-------------|-2-2-2-2-|
E |--------------------|----------------------------|-------------|-0-0-0-0-|
    PM----/                                                         PM----/

E |-------------------------|--------------------|------------------------|
B |-------------------------|--------------------|------------------------|
G |-------------------------|--------------------|------------------------|
D |-5-5-5-4-5---4-5-4-5-4-2-|-4-4-4-2-4---5--5-4-|-5-5-5-4-5--4-5-4-5-4-2-|
A |-3-3-3-2-3---2-3-2-3-2-0-|-2-2-2-0-2---3--3-2-|-3-3-3-2-3--2-3-2-3-2-0-|
E |-------------------------|--------------------|------------------------|
    PM----/     PM------/     PM-----/             PM-----/   PM------/

E |---------------------------------|
B |--------------------------8--8-8-|
G |--------------5---7---4---7--7-7-|
D |-4-4-4-2-4---5---7----4---5--5-5-|
A |-2-2-2-0-2--3---5-----2----------|
E |---------------------------------|
    PM----/

E |-------------------|-------------------|-------------------|----------/\-|
B |-------------------|-------------------|-------------------|-12-----10-8-|
G |-------------------|-----------9-------|-------------------|---11-12-----|
D |-9-----------------|-12----------------|-9-----------------|-------------|
A |-------------------|-------------------|-------------------|-------------|
E |-------------------|-------------------|-------------------|-------------|
  |
E |-------------------|-------------------|-------------------|-------------|
B |-------------------|-------------------|-------------------|-------------|
G |-------------------|---------------7---|-------------------|-5-4-2--5--4-|  
D
|-------------------|---------------7---|-------------------|-5-4-2--5--4-|     
A |-------------------|---------------5---|-------------------|-3-2-0--3--2-|
E |-0--0-0-0-0--0-0-0-|-0--0-0-0-0--0-----|-0--0-0-0-0--0-0-0-|-------------|
    PM------------------------------/       PM--------------/

                                   H  P
E |-------------------|------------/\/\---|-------------------|12-----------|
B |-------------------|-------10--8-10-8--|-------------------|--12---------|
G |-9-------9--8-9--11|12-----------------|-9---------9-11-12-|----11-9-11-12
D |-------------------|---\9--------------|-------------------|-------------|
A |-------------------|--sl.--------------|-------------------|-------------|
E |-------------------|-------------------|-------------------|-------------|
  |
E |-------------------|-------------------|-------------------|-------------|
B |-------------------|-------------------|-------------------|-------------|
G |-------------------|---------------7---|-------------------|-5-4-2--7--6-|  
D
|-------------------|---------------7---|-------------------|-5-4-2--7--6-|     
A |-------------------|---------------5---|-------------------|-3-2-0--5--4-|
E |-0--0-0-0-0--0-0-0-|-0--0-0-0-0--0-----|-0--0-0-0-0--0-0-0-|-------------|
    PM-------------------------------/      PM--------------/
                           H H P  P
      H H      P P          /\/\ /\ /\   
E |--/\-/\-9---/\/\-----|14-16-18-16-14-16|------sl.--P--P-----|---Trill----|
B |-9-11-12--12-11-9-11-|-----------------|-17-16/17-/\-/\-----|---/\-------|
G |---------------------|-----------------|---------18-16-15---|-15-16------|
D |---------------------|-----------------|--------------------|--------18--|
A |---------------------|-----------------|--------------------|------------|
E |---------------------|-----------------|--------------------|------------|
  |
E |---------------------|-----------------|--------------------|------------|
B |---------------------|-----------------|--------------------|------------|
G |---------------------|-----------------|--------------------|------------|
D |-6---------------6---|-------6---4---7-|-6--------------6---|-------6--4-|
A |-6---6-6-6-6-6-6-6---|-6-6-6-6---4---7-|-6--6-6-6-6-6-6-6---|-6-6-6-6--4-|
E |-4---4-4-4-4-4-4-4---|-4-4-4-4---2---5-|-4--4-4-4-4-4-4-4---|-4-4-4-4--2-|
        PM---------/      PM--/                PM--------/       PM---/
                                          H       P   P       P  P
E |--------------|------------------|----/\-------/\-/\----|--/\/\-----------|
B |17~~14-17~~14-|-17~~14-17~~14-15-|--16-17-19--19-17-16--|19-17-16---------|
G |--------------|------------------|18------------------18|--------18-16----|
D |--------------|------------------|----------------------|-------------18-15
A |--------------|------------------|----------------------|-----------------|
E |--------------|------------------|----------------------|-----------------|
  |
E |--------------|------------------|----------------------|-----------------|
B |--------------|------------------|----------------------|-----------------|
G |--------------|------------------|----------------------|--------------10-|
D |-6--------6---|-------6---4---7--|-6---------------6----|----------6---9--|
A |-6-666666-6---|-6-6-6-6---4---7--|-6---6-6-6-6-6-6-6----|-6--6--6--6---8--|
E |-4-444444-4---|-4-4-4-4---2---5--|-4---4-4-4-4-4-4-4----|-4--4--4--4------|
      PM----/      PM---/                 PM---------/       PM-----/

E |------------------------|-----------------------|------------------------|
B |------------------------|-----------------------|------------------------|
G |------------------------|-----------------------|------------------------|
D |------------------------|-----------------------|------------------------|
A |------------------------|-----------------------|-2-2-2-2-2-2-2-2-2-2-2-2|
E |-1-1-1-1-1-1-1-1-1-1-1-1|1-1-1-1-1-1-1-1-1-1-1-1|------------------------|
    PM through-out the verse
    Jonathan laugh and say....

E |------------------------|-----------------------|------------------------|
B |------------------------|-----------------------|------------------------|
G |------------------------|-----------------------|------------------------|
D |------------------------|-----------------------|------------------------|
A |-2-2-2-2-2-2-2-2-2-2-2-2|-----------------------|------------------------|
E |------------------------|1-1-1-1-1-1-1-1-1-1-1-1|3-3-3-3-3-3-3-3-3-3-3-3-|


E |-------------------------|-------------------------|
B |-------------------------|-------------------------|
G |-------------------------|-------------------------|
D |-------------------------|-------------------------|
A |-------------------------|-------------------------|
E |-5-5-5-5-5-5-5-5-5-5-5-5-|-5-5-5-5-5-5-5-5-5-5-5-5-|


E |------------------------|------------------------|------------------------|
B |------------------------|------------------------|------------------------|
G |------------------------|------------------------|------------------------|
D |------------------------|------------------------|------------------------|
A |------------------------|------------------------|2-2-2-2-2-2-2-2-2-2-2-2-|
E |-1-1-1-1-1-1-1-1-1-1-1-1|1-1-1-1-1-1-1-1-1-1-1-1-|------------------------|
    The 7 horsemen...

E |------------------------|-----------------------|------------------------|
B |------------------------|-----------------------|------------------------|
G |------------------------|-----------------------|------------------------|
D |------------------------|-----------------------|------------------------|
A |-2-2-2-2-2-2-2-2-2-2-2-2|-----------------------|------------------------|
E |------------------------|1-1-1-1-1-1-1-1-1-1-1-1|3-3-3-3-3-3-3-3-3-3-3-3-|


E |------------------------|-----------------------|------------------------|
B |------------------------|-----------------------|------------------------|
G |------------------------|-----------------------|------------------------|
D |------------------------|-----------------------|------------------------|
A |------------------------|-----------------------|------------------------|
E |-5-5-5-5-5-5-5-5-5-5-5-5|5-5-5-5-5-5-5-5-5-5-5-5|1-1-1-1-1-1-1-1-1-1-1-1-|


E |-------------------------|-------------------|------------------|
B |-------------------------|-------------------|------------------|
G |-------------------------|-------------------|------------------|
D |-------------------------|-2--------3--------|-2--------1--2--1-|
A |-------------------------|-2--------3--------|-2--------1--2--1-|
E |-3-3-3-3-3-3-3-3-3-3-3-3-|-0--0-0-0-1--1-1-1-|-0--0-0-0---------|
                                 PM--/    PM--/      PM----------/

E |-------------------|-------------------|-------------------|-------------|
B |-------------------|-------------------|-------------------|-------------|
G |-------------------|-------------------|-------------------|-------------|
D |-2--------3--------|-2--0--1--2--1--0--|-2--------3--------|-2------1-2-1|
A |-2--------3--------|-2--0--1--2--1--0--|-2--------3--------|-2------1-2-1|
E |-0--0-0-0-1--1-1-1-|-------------------|-0--0-0-0-1--1-1-1-|-0--000------|
       PM--/    PM--/   PM--------------/      PM--/    PM--/      PM------/

E |-------------------|-------------------|
B |-------------------|-------------------| 
G |-------------------|-------------------| 
D |-2--------3--------|-2--0--1--2--1--0--|
A |-2--------3--------|-2--0--1--2--1--0--|
E |-0--0-0-0-1--1-1-1-|-------------------|
       PM---/   PM---/  PM-------------/

                                            sl.
E |---P---P-----P--P--|-P--P---P---P--P--|15-/-18------------|15-----------|
B |--/\--/\----/\-/\--|/\--/\-/\--/\--/\-|15-/-18------------|15-----------|
G |-12-0-7-0-10-0-8-0-5-0-8-0-7-0-3-0-7-0|-------------------|-------------|
D |-------------------|------------------|-------------------|-------------|
A |-------------------|------------------|-------------------|-------------|
E |-------------------|------------------|-------------------|-------------|
  |
E |-------------------|------------------|-------------------|-------------|
B |-------------------|------------------|-------------------|-------------|
G |-------------------|------------------|-------------------|-------------|
D |-5--------6--------|-5--------4--5--4-|-5--------6--------|-5-3-4-5-4-3-|
A |-5--------6--------|-5--------4--5--4-|-5--------6--------|-5-3-4-5-4-3-|
E |-3--3-3-3-4--4-4-4-|-3--3-3-3-2--3--2-|-3--3-3-3-4--4-4-4-|-3-1-2-3-2-1-|
       PM--/    PM--/      PM----------/      PM---/   PM--/   PM--------/

E |-------------------|------------------|---------------------------------|
B |-There's a burst of note here that is-|-----------------------20--------|
G |-not transcrible!  Just begin around--|-------------------19(B)---------|
D |-the 17th-fret of the 1st string (high E),----------------^-------------|
A |-go up (around 19th fret of 5th string) and---------------|-------------|
E |-then go down to where you begin and finish with this_____|-------------|
  |
E |-------------------|------------------|-------------------|-------------|
B |-------------------|------------------|-------------------|-------------|
G |-------------------|------------------|-------------------|-------------|
D |-7--------8--------|-7--------6--7--6-|-7--------8--------|-7-5-6-7-6-5-|
A |-7--------8--------|-7--------6--7--6-|-7--------8--------|-7-5-6-7-6-5-|
E |-5--5-5-5-6--6-6-6-|-5--5-5-5-4--5--4-|-5--5-5-5-6--6-6-6-|-5-3-4-5-4-3-|
       PM--/    PM---/     PM----------/      PM--/    PM--/   PM---------/

E |-------------------|------------------|-------------------|-------------|
B |-------------------|------------------|-------------------|-------------|
G |-------------------|------------------|-------------------|-------------|
D |-5--3--4--5--4--3--|-3--1--2--3---5-8-|-2--------3--------|-2-----121-2-|
A |-5--3--4--5--4--3--|-3--1--2--3---5-8-|-2--------3--------|-2-----121-2-|
E |-3--1--2--3--2--1--|-1-----0--1---3-6-|-0--0-0-0-1--1-1-1-|-0-000-----0-|
   PM--------------/   PM---------------/     PM--/    PM--/     PM-----/

That's it! Hope you like it.  Remember that I'm not the incredible
transcription man that knows EXACTLY how to play every song!  If you think
I'm not right at some places, then you're maybe right!  Email me if you have
found anything better than this transcription.

        Steve "Tabac" Begin





Comments


Popular King Diamond tabs & chords
Trick Or Treat 2 Bass Tabs
A Visit From The Dead Tabs
Follow The Wolf Tabs
From The Other Side Tabs
Magic Tabs
Miriam Tabs
More Than Pain Tabs
Pictures In Red Tabs
Something Weird Tabs
The Family Ghost Tabs


Song lyrics



↑ Back to top | Tablatures and chords are parodies/interpretations of the original songs. You may use it for private study, scholarship, research or language learning purposes only
© 2014 AZChords.com Contact us | Privacy policy | DMCA | Add/correct tabs | Request tabs | Top 50 tabs