» » »

Stand By Me Bass tabs (ver.3)

Artists:  A B C D E F G H I J K L M N O P Q R S T U V W X Y Z # 

Stand By Me Bass tabs (ver.3)

King Ben E
Rating:
0/5 (0 votes)

Hard to play? Try these video lessons and learn fast.
                Artist          : BEN.E.KING
Bass Performance: STAND BY ME
---


|   w  w  w  w
G -------------
D -----6--7--7  X2
A --7----------
E -------------
  THEN

|   w  w  w  w
G ------------
D --7--6------ 
A --------9--9 
E ------------
| 

G   w  w  w  w
D -------------
A -------------
E -----7--9--9-
 --9----------

 
|   w  w  w  w
G ------------
D -----7------
A --7-----5--5
E ------------


|   w  w  w  w
G ------------
D -----4------
A --5-----7--7
E ------------
  THEN BACK TO THE BEGINING .
            
Hard to play? Try these video lessons and learn fast. | Correct




comments powered by Disqus
↑ Back to top | Tablatures and chords are parodies/interpretations of the original songs. You may use it for private study, scholarship, research or language learning purposes only