>
 >
Smoulder 1

Smoulder 1 Guitar Tabs

King Adora - Smoulder 1 chords, tabs, tablatures, lyrics

Guitar lessons | Add/correct | Request | Top 50 tabs Artists:  A B C D E F G H I J K L M N O P Q R S T U V W X Y Z 0-9

Smoulder 1 Guitar Tabs – King Adora

CD, Sheet music, Poster

Do you like Smoulder 1? Share with your friends now
TabsTabs v2
King Adora - Smoulder


Intro 
-----

Guitar 1 - play riff below twice

E [-----------------------------------------------------------------]
B [-----------------------------------------------------------------]
G [---------4-4-4-6---6-6-6-----------------------5---5-5-5-4-4-4-4-]
D [-2---2-2-4-4-4-6---6-6-6-6-6-6-7---7-7-7-6-6-6-5---5-5-5-4-4-4-4-]
A [-2---2-2-2-2-2-4---4-4-4-6-6-6-7---7-7-7-6-6-6-3---3-3-3-2-2-2-2-]
E [-0---0-0-----------------4-4-4-5---5-5-5-4-4-4-------------------]



Guitar 2

E [-----------------------------------------------------------------]
B [-----------------------------------------------------------------]
G [-----------------------8-8-8-9---9-9-11-11-11-11-9---9-9-9-8b9r8-]
D [---9-9-9h11---11-11-11-------------------------------------------]
A [-----------------------------------------------------------------]
E [-----------------------------------------------------------------]

E [-----------------------------------------------------------------]
B [-7b9r7-----------7b9r7-----------7b9r7-----------7b9r7-----------]
G [-------9-9-8b9r8-------9-9-8b9r8-------9-9-8b9r8-------9-9-8b9r8-]
D [-----------------------------------------------------------------]
A [-----------------------------------------------------------------]
E [-----------------------------------------------------------------]




Verse
-----

Guitar 2

e [------------------------------]
B [------------------------------]
G [-0---------4-----0---------4--]
D [-2-------2-------2-------2----]
A [-2-----3---------2-----3------]
E [-0---------------0------------]



Bridge
------

Guitars 1 & 2

E [------------------------------------------------------]
B [------------------------------------------------------]
G [------------------4---4-4-4---4-4-4---2-2---2-2---2-2-]
D [--5---5---5-5-5---4---4-4-4---4-4-4---2-2---2-2---2-2-]
A [--5---5---5-5-5---2---2-2-2---2-2-2---0-0---0-0---0-0-]
E [--3---3---3-3-3---------------------------------------]



Chorus 
------

Guitars 1 & 2 - play same as intro

between chorus and solo leave A5 chord ring

E [-------]
B [-------]
G [---2---]
D [---2---]
A [---0---]
E [-------]



Solo
----

Guitar 1 

play same as intro


Guitar 2

play below riff twice

e [-0-0-0-0-----0---0-0-0-0-----0---0-0-0---0---0-0-0-0-0------0---0-0-0-----]
B [-5-5-5-4h5---9s5-5-5-5-4h5---9s5-5-5-5---2---5-5-5-5-4h5----8---8-8-7b8r7-]
G [--------------------------------------------------------------------------]
D [--------------------------------------------------------------------------]
A [--------------------------------------------------------------------------]
E [--------------------------------------------------------------------------]





Comments


Popular King Adora tabs & chords
Aceface Chords
Aceface 1 Chords
Big Isn't Beautiful Tabs
Depression Tabs
Dont Trust The Ones You Love Tabs
Smoulder Tabs
Suffocate Tabs
Suffocate 1 Tabs
Weather Tabs
Aceface Ukulele


Song lyrics



↑ Back to top | Tablatures and chords are parodies/interpretations of the original songs. You may use it for private study, scholarship, research or language learning purposes only
© 2014 AZChords.com Contact us | Privacy policy | DMCA | Add/correct tabs | Request tabs | Top 50 tabs