» » »

Kimbra, Cameo Lover Tabs (ver.1)

Artists:  A B C D E F G H I J K L M N O P Q R S T U V W X Y Z # 

Cameo Lover Tabs (ver.1)

Kimbra Tabs
 Rating:
4/5 (4 votes)
Cameo Lover lessons Tabs too difficult? Try these video lessons and learn fast
                (Intro)
I can't find this tab anywhere so I decided to have a crack at it myself.
I'm not heaps good at guitar but I tried my best in figuring it out.
Hopefully what I've got here will help others to write a better version.

lyrics are below tabs.

Kimbra - Cameo Lover

verse:
e--------------------------------------------------|
b-----------6--------------------------------------|
g--------------7-----------------------------------|
d-----------------8--------------------------------|
a-----------------8--------------------------------|
e--------------------------------------------------|

e--------------------------------------------------|
b-----------1--------------------------------------|
g--------------2-----------------------------------|
d-----------------3--------------------------------|
a-----------------3--------------------------------|
e--------------------------------------------------|

bridge:
e---------------------------------------------------|
b------------------8--------------------------------|
g------------------8--------------------------------|
d--------6------------------------------------------|
a-------------7-------------------------------------|
e---------------------------------------------------|

e---------------------------------------------------|
b------------------6--------------------------------|
g------------------6--------------------------------|
d--------4------------------------------------------|
a-------------5-------------------------------------|
e---------------------------------------------------|

e---------------------------------------------------|
b------------------5--------------------------------|
g------------------5--------------------------------|
d--------3------------------------------------------|
a-------------4-------------------------------------|
e---------------------------------------------------|

e---------------------------------------------------|
b------------------4--------------------------------|
g------------------4--------------------------------|
d--------2------------------------------------------|
a-------------3-------------------------------------|
e---------------------------------------------------|




e--------------------------------------------------|
b-----------6--------------------------------------|
g--------------7-----------------------------------|
d-----------------8--------------------------------|
a-----------------8--------------------------------|
e--------------------------------------------------|

e---------------------------------------------------|
b-----------8---------------------------------------|
g--------------9------------------------------------|
d-----------------10--------------------------------|
a-----------------10--------------------------------|
e---------------------------------------------------|

chrous:
e--------------------------------------------------|
b-----------1--------------------------------------|
g--------------------------------------------------|
d---------------2----------------------------------|
a-----------------3--------------------------------|
e-----------------3--------------------------------|

e--------------------------------------------------|
b-----------1--------------------------------------|
g---------------2----------------------------------|
d---------------2----------------------------------|
a--------------------------------------------------|
e--------------------------------------------------|

e--------------------------------------------------|
b-----------1--------------------------------------|
g--------------------------------------------------|
d----------------2---------------------------------|
a----------------2---------------------------------|
e--------------------------------------------------|

e--------------------------------------------------|
b--------------------------------------------------|
g--------------------------------------------------|
d----------------3---------------------------------|
a----------------3---------------------------------|
e------1-------------------------------------------|

e--------------------------------------------------|
b--------------------------------------------------|
g--------------------------------------------------|
d----------------5---------------------------------|
a----------------5---------------------------------|
e------3-------------------------------------------|


This is nonstop baby
You've got me going crazy
You're heavier than i knew
But i don't want no other
You're my cameo love
Only here for a moment or two
You stay inside that bubble
With all of your trouble
In your black hole
You turn from the skies
You dance with your demise
I'll be here when you come home

We've all gotta break down
Let me come and break down with you

Cause everyday's like talking in your sleep!
Love is like a silhouette in dreams!
Open up your heart! Open up your heart
Open up your heart and let me pull you out
Everyday's like talking in your sleep!
Love is like a silhouette in dreams!
Open up your heart! open up your heart
Open up your heart and let me pull you out of here

I've got high hopes baby
But all you do is take me down to depths that i never knew
You've got two arms baby
They're all tangled in ladies of the black skies posing blue
Let go of your mother
And turn to your brother!
Not a long gone lover's noose
Sometimes baby the hardest part of breaking is leaving pieces behind you

Oh we've all gotta get by
Let me come and hold you high, with you

Everyday's like talking in your sleep!
Love is like a silhouette in dreams!
Open up your heart! Open up your heart
Open up your heart and let me pull you out
Everyday's like talking in your sleep!
Love is like a silhouette in dreams!
Open up your heart! Open up your heart
Open up your heart and let me pull you out of here

Open up your heart to me!
The sun won't shine if you're not looking
Baby love is all that you need

When everyday's like talking in your sleep!
Love is like a silhouette in dreams!
Open up your heart! Open, open, open

Everyday's like talking in your sleep!
Love is like a silhouette in dreams!
Open up your heart! Open up your heart
Open up your heart and let me pull you out

Open up your heart! Open up your heart
Open up your heart! Open up your heart
Open up your heart! Open up your heart
            
Submit corrections

comments powered by Disqus
↑ Back to top | Kimbra Tabs for Cameo Lover. Lyrics for acoustic guitar and electric guitar. Tablatures and chords are parodies/interpretations of the original songs. You may use it for private study, scholarship, research or language learning purposes only