>
 >
Cameo Lover

Cameo Lover Bass Tabs

Kimbra - Cameo Lover chords, tabs, tablatures, lyrics

Guitar lessons | Add/correct | Request | Top 50 tabs Artists:  A B C D E F G H I J K L M N O P Q R S T U V W X Y Z 0-9

Cameo Lover Bass Tabs – Kimbra

CD, Sheet music, Poster

Do you like Cameo Lover? Share with your friends now
Bass TabsChordsChords v2Chords v3Chords v4Chords v5Chords v6UkuleleUkulele v2
Band: Kimbra
Tempo: 127bpm

Techniques: 
Slide - /
Pop - P

Check out this link to watch me play the song!



VERSE 1
G||-----------------------|----------------------|
D||*----------------------|----------------------|
A||-----------------------|----------------------|
E||*--4---4---4-----------|--4---4---4-----------|
B||-----------------------|----------------------|
                                              4x
------------------------|-----------------------||
------------------------|----------------------*||
------------------------|-----------------------||
----2---2---2-----------|--2---2---2-----------*||
------------------------|-----------------------||


PRECHORUS      
------------------|-------------------|------------------|------------------|
------------------|-------------------|------------------|------------------|
--6---------------|-------------------|------------------|--4---------------|
------------------|--6--------5-------|--4---------------|------------------|
------------------|-------------------|------------------|------------------|

CHORUS
--------------6--------|----------------------8--|
-----------------------|------------------6------|
-----------------------|--------------4----------|
--2--------2-----------|--2--------2-------------|
-----------------------|-------------------------|

--------------6---------|--------------8-----------|
------------------------|--------------------------|
-------------------4----|--------------------6-----|
--2--------2------------|--2--------2--------------|
------------------------|--------------------------|
    
--------------/10----------|--------------/13----------|
---------------------11----|---------------------15----|
---------------------------|---------------------------|
--11-------11--------------|--13-------13--------------|
---------------------------|---------------------------|
  
--------------/15----------|--------------/18----17----|
---------------------15----|---------------------------|
---------------------------|---------------------------|
--14-------14--------------|--16-------16--------------|
---------------------------|---------------------------|
  
----------------------|--------------------------|
----------------------|--------------------------|
----------------------|--------------------------|
--2---2---2-----------|--2--------2-----2--------|
----------------------|--------------------------|
 
----------------------|--------------------------|
----------------------|--------------------------|
----------------------|--------------------------|
--2---2---2-----------|--9--------9-----9--------|
----------------------|--------------------------|
 
--------------/10----------|--------------/13----------|
---------------------11----|---------------------15----|
---------------------------|---------------------------|
--11-------11--------------|--13-------13--------------|
---------------------------|---------------------------|
 
--------------/15----------|--------------/18----17----|
---------------------15----|---------------------------|
---------------------------|---------------------------|
--14-------14--------------|--16-------16--------------|
---------------------------|---------------------------|
                
-------------------|-------------------|
-------------------|-------------------|
-------------------|-------------------|
--6----------------|-------------------|
-------------------|-------------------|


                                                      
 VERSE 2                 P
|------------------------13--|-------------------------|
|*---------------11-/13------|---------------11-/13----|
|----------------------------|-------------------------|
|*---------------------------|-------------------------|
|---9---9---9----------------|--9---9---9--------------|
                                                 
                       P    1.2.3                  4x 4.
----------------------11--|-------------------------||----------------------|
--------------11-/13------|---------------11--13---*||---------------13\----|
--------------------------|-------------------------||----------------------|
--------------------------|------------------------*||----------------------|
--7---7---7---------------|--7---7---7--------------||--7---7---7-----------|

PRE CHORUS

CHORUS 2
        
-------------6--------|-------------8--------|
----------------------|----------------------|
----------------------|----------------------|
--2---2---2-----------|--2---2---2-----------|
----------------------|----------------------|
      
-------------6--------|-------------8--------|
----------------------|----------------------|
----------------------|----------------------|
--2---2---2-----------|--2---2---2-----------|
----------------------|----------------------|

--------------/10----------|--------------/13----------|
---------------------11----|---------------------15----|
---------------------------|---------------------------|
--11-------11--------------|--13-------13--------------|
---------------------------|---------------------------|
 
--------------/15----------|--------------/18----17----|
---------------------15----|---------------------------|
---------------------------|---------------------------|
--14-------14--------------|--16-------16--------------|
---------------------------|---------------------------|
     
-------------6--------|-------------8--------|
----------------------|----------------------|
----------------------|----------------------|
--2---2---2-----------|--2---2---2-----------|
----------------------|----------------------|
      
-------------6--------|----------------------|
----------------------|----------------------|
----------------------|----------------------|
--2---2---2-----------|--9---9---9-----------|
----------------------|----------------------|
  
--------------/10----------|--------------/13----------|
---------------------11----|---------------------15----|
---------------------------|---------------------------|
--11-------11--------------|--13-------13--------------|
---------------------------|---------------------------|
  
--------------/15----------|--------------/18----17----|
---------------------15----|---------------------------|
---------------------------|---------------------------|
--14-------14--------------|--16-------16--------------|
---------------------------|---------------------------|

BRIDGE
--------------------------|--------------------------|
--------------------------|--------------------------|
--6-----6-----6-----6-----|--------------------------|
--------------------------|--4--------4-----4--------|
--------------------------|--------------------------|
 
--------------------------|--------------------------|
--------------------------|--------------------------|
--6--------6-----6--------|--------------------------|
--------------------------|--4--------4-----4--------|
--------------------------|--------------------------|

--------------------------|--------------------------|
--------------------------|--------------------------|
--8--------8-----8-----8--|--------------------------|
--------------------------|--6-----6-----6-----6-----|
--------------------------|--------------------------|
                       
-------------------------|-------|-------|-------|-------|-------|
-------------------------|-------|-------|-------|-------|-------|
-------------------------|-------|-------|-------|-------|-------|
--6-----6-----6--6--6----|-------|-------|-------|-------|-------|
-------------------------|-------|-------|-------|-------|-------|
 
OUTRO   
---------------------|---------------------|
--3------3--3--------|--5------5--5--------|
---------------------|---------------------|
---------------------|---------------------|
---------------------|---------------------|
     
---------------------|---------------------|
--6------6--6--------|--8------8--8--------|
---------------------|---------------------|
---------------------|---------------------|
---------------------|---------------------|
 
--------------------|--------------------|
---------------6----|---------------6----|
--------------------|--------------------|
--4-----------------|--4-----------------|
--------------------|--------------------|
 
--------------------|--------------------|
---------------6----|---------------6----|
--------------------|--------------------|
--4-----------------|--4-----------------|
--------------------|--------------------|

-----------------------|------------------------|
------------/5---------|------------/8----------|
------------------6----|------------------10----|
-----------------------|------------------------|
--6-------6------------|--8-------8-------------|

-------------------------|-------------------------|
------------/10----------|------------/13----12----|
-------------------11----|-------------------------|
-------------------------|--6-------6--------------|
--9-------9--------------|-------------------------|

--------------------------|--------------------------|
--------------------------|--------------------------|
--------------------------|--------------------------|
--4-----4-----4-----4-----|--4-----4-----4-----4-----|
--------------------------|--------------------------|

--------------------------|--------------------------|
--------------------------|--------------------------|
--------------------------|--6-----6-----6-----6-----|
--4-----4-----4-----4-----|--------------------------|
--------------------------|--------------------------|

-----------------------|------------------------|
------------/5---------|------------/8----------|
------------------6----|------------------10----|
-----------------------|------------------------|
--6-------6------------|--8-------8-------------|

-------------------------|---------------------------|
------------/10----------|--------------/13----12----|
-------------------11----|---------------------------|
-------------------------|---------------------------|
--9-------9--------------|--11-------11--------------|

---------------------------|---------------------------|
---------------------------|---------------------------|
---------------------------|---------------------------|
--4-----4----4-4--4--4-----|--4-----4----4-4--4--4-----|
---------------------------|---------------------------|

---------------------------|---------------------------|
---------------------------|---------------------------|
---------------------------|---------------------------|
--4-----4----4-4--4--4-----|--4-----4----4-4--4--4-----|
---------------------------|---------------------------|
     
-----------------------|------------------------|
------------/5---------|------------/8----------|
------------------6----|------------------10----|
-----------------------|------------------------|
--6-------6------------|--8-------8-------------|

-------------------------|---------------------------||
------------/10----------|--------------/13----12----||
-------------------11----|---------------------------||
-------------------------|---------------------------||
--9-------9--------------|--11-------11--------------||





Comments


Popular Kimbra tabs & chords
Cameo Lover Chords
Cameo Lover 1 Chords
Cameo Lover 2 Chords
Old Flame Chords
The Build Up Chords
Two Way Street Chords
Wandering Limbs Chords
Cameo Lover 2 Ukulele
I Look To You Ukulele
Simply On My Lips Ukulele


Song lyrics



↑ Back to top | Tablatures and chords are parodies/interpretations of the original songs. You may use it for private study, scholarship, research or language learning purposes only
© 2014 AZChords.com Contact us | Privacy policy | DMCA | Add/correct tabs | Request tabs | Top 50 tabs