» » »

Calm Down Tabs (ver.1)

Artists:  A B C D E F G H I J K L M N O P Q R S T U V W X Y Z # 

Calm Down Tabs (ver.1)

Killing Heidi
Rating:
5/5 (2 votes)

Tabs too difficult? Try these video lessons and learn fast.
                Hey...This is the 2nd single from killing heidi's latest self-titled album
(released 2002/2003??)
Great Band, Great Song.
I've tabbed this song usng only one guitar...at some parts i no that a second guitar 
in, but i couldn't figure out what it does.....
Tuning= Standard

Intro:
e----------------------------------------------------------------------|
B----------2--3-------3--3--3------------------------------------------|
G---2--2---------(2)----------------------x2---------------------------|
D----------------------------------------------------------------------|
A----------------------------------------------------------------------|
E----------------------------------------------------------------------|

Verse 1 - Part 1
e--------------------------------------------------------------------------|
B----------2--3---------3--3--3--------------------------------------------|
G---2--2----------(2)------------------------x4----------------------------|
D--------------------------------------------------------------------------|
A--------------------------------------------------------------------------|
E--------------------------------------------------------------------------|

Verse 1 - Part 2
e----------------------------------------------------------------------|
B---------2--3---------10--8--7----------------------------------------|
G---2--2---------(2)-------------------x4------------------------------|
D----------------------------------------------------------------------|
A----------------------------------------------------------------------|
E----------------------------------------------------------------------|

Chorus 1- (this isn't the right strumming, but each power chord written
         = i quaver.......ie, 8 power chords = the 4 beats for that bar)
e----------------------------------------------------------------|
B----------------------------------------------------------------|
G---44444444----------------77777777---77777777------------------|
D---44444444---55555555-----77777777---77777777------x2----------|
A---22222222---55555555-----55555555---55555555------------------|
E--------------33333333------------------------------------------|

Interlude 1
e----------------------------------------------------------------------|
B---------2--3---------10--8--7----------------------------------------|
G---2--2---------(2)-------------------x2------------------------------|
D----------------------------------------------------------------------|
A----------------------------------------------------------------------|
E----------------------------------------------------------------------|

Verse 2 Part 1
e-----------------------------------------------------------------------|
B-----------------------------------------------------------------------|
G--------------7-7------------------------------------------------------|
D---7-7--------7-7-----------x4-----------------------------------------|
A---7-7--------5-5------------------------------------------------------|
E---5-5-----------------------------------------------------------------|

Verse 2 Part 2
e----------------------------------------------------------------------|
B---------2--3---------10--8--7----------------------------------------|
G---2--2---------(2)-------------------x4------------------------------|
D----------------------------------------------------------------------|
A----------------------------------------------------------------------|
E----------------------------------------------------------------------|

Chorus 2- (this isn't the right strumming, but each power chord written
         = i quaver.......ie, 8 power chords = the 4 beats for that bar)
e--------------------------------------------------------------------|
B--------------------------------------------------------------------|
G---44444444----------------77777777---(77777777)*-------------------|
D---44444444---55555555-----77777777---(77777777)------x4------------|
A---22222222---55555555-----55555555---(55555555)--------------------|
E--------------33333333----------------------------------------------|

*Play this D5 the 1st, 2nd, and 4th time Through, but on the 3rd Play:

e-----------------|
B-----------------|
G-----------------|
D---77777777------|
A---77777777------|
E---55555555------|

Interlude 2 Part 1
e--------------------------------------------------------------------|
B--------------------------------------------------------------------|
G----------14----------14--------------14----------14----------------|
D--12--12------12--12----------11--11------11--11--------------------|
A--------------------------------------------------------------------|
E--------------------------------------------------------------------|

e---------------------------------------------------------------------|
B---------------------------------------------------------------------|
G----------14----------14------------14----------14-------------------|
D--10--10------10--10----------9--9------9--9--------------x4---------|
A---------------------------------------------------------------------|
E---------------------------------------------------------------------|

Interlude 2 Part 2 ( The bit ahere she sings ..."oh ooo"x a few)
e------------------------------------------------------------------|
B--10--10--10----8--7--5--7--8--10--10-----------------------------|
G-----------------------------------------------x4-----------------|
D------------------------------------------------------------------|
A------------------------------------------------------------------|
E------------------------------------------------------------------|

Interlude 2 Part 3
e----------------------------------------------------------------------|
B---------2--3---------10--8--7----------------------------------------|
G---2--2---------(2)-------------------x2------------------------------|
D----------------------------------------------------------------------|
A----------------------------------------------------------------------|
E----------------------------------------------------------------------|


Bridge/ verse 3??? ( "w3hen ur head is spinning....and ur feeling overwhelmed....."
e------------------------------------------------------------------------|
B------------------------------------------------------------------------|
G--------------7-7-------------------------------------------------------|
D---7-7--------7-7-----------x2------------------------------------------|
A---7-7--------5-5-------------------------------------------------------|
E---5-5------------------------------------------------------------------|

e----------------------------------------------------------------------|
B---------2--3---------10--8--7----------------------------------------|
G---2--2---------(2)-------------------x2------------------------------|
D----------------------------------------------------------------------|
A----------------------------------------------------------------------|
E----------------------------------------------------------------------|

Chorus 3 (this isn't the right strumming, but each power chord written
         = i quaver.......ie, 8 power chords = the 4 beats for that bar)
e------------------------------------------------------------|
B------------------------------------------------------------|
G---44444444----------------77777777---77777777--------------|
D---44444444---55555555-----77777777---77777777------x4------|
A---22222222---55555555-----55555555---55555555--------------|
E--------------33333333--------------------------------------|

Outro- "come back,come back,come back,come back,come back,again"
e-----------------------------------------------------------------------|
B-----------------------------------------------------------------------|
G---77777777------------------------------------------------------------|
D---77777777---------x16------------------------------------------------|
A---55555555------------------------------------------------------------|
E-----------------------------------------------------------------------|

This is what they play....but i reckon 1 guitar shhould play this while the other plays 
the riff below

e-----------------------------------------------------------------------|
B---------2--3---------10--8--7-----------------------------------------|
G---2--2---------(2)-------------------xhow ever many needed------------|
D-----------------------------------------------------------------------|
A-----------------------------------------------------------------------|
E-----------------------------------------------------------------------|

well thats it...its a good song to play at a concert or something....
and see if you can check out and support more australian bands like killing heidi, the 
end, and evermore

Cya,
Counterfeit
            
Tabs too difficult? Try these video lessons and learn fast.




comments powered by Disqus
↑ Back to top | Tablatures and chords are parodies/interpretations of the original songs. You may use it for private study, scholarship, research or language learning purposes only