» » »

Killing Heidi, Calm Down Bass tabs (ver.1)

Artists:  A B C D E F G H I J K L M N O P Q R S T U V W X Y Z # 

Calm Down Bass tabs (ver.1)

Killing Heidi Tabs
 Rating:
4/5 (4 votes)
Calm Down lessons Tabs too difficult? Try these video lessons and learn fast
                
Tuning: Standard

G|----------------------------------------------------------------|
D|-0002-2222-5555-5555--------------------------------------------|
A|----------------------------------------------------------------| x10
E|----------------------------------------------------------------|

G|----------------------------------------------------------------|
D|----------------------------------------------------------------|
A|-2-2-220---------5-5-555-5-5-7-9-2-2-220----------5-5-555-5-5-5-| x1
E|---------3-3-331--------------------------3-3-331---------------|

G|----------------------------------------------------------------|
D|-0002-2222-5555-5555--------------------------------------------|
A|----------------------------------------------------------------| x10
E|----------------------------------------------------------------|

G|----------------------------------------------------------------|
D|----------------------------------------------------------------|
A|-2-2-220---------5-5-555-5-5-7-9--------------------------------| x2
E|---------3-3-331------------------------------------------------|

G|----------------------------------------------------------------|
D|----------------------------------------------------------------|
A|-2-2-220---------5-5-555---------2-2-220------------------------| x1
E|---------3-3-331---------5-0-5-0---------3-3-331----------------|

G|----------------------------------------------------------------|
D|----------------------------------------------------------------|
A|-55555500-44444400-33333300-22222200----------------------------| x2
E|----------------------------------------------------------------|

G|----------------------------------------------------------------|
D|-000-2-22-4-44-5-55---------------------------------------------|
A|----------------------------------------------------------------| x4
E|----------------------------------------------------------------|

G|----------------------------------------------------------------|
D|-0002-2222-5555-5555--------------------------------------------|
A|----------------------------------------------------------------| x2
E|----------------------------------------------------------------|

G|----------------------------------------------------------------|
D|-00000000-00000000-00000000-00000000----------------------------|
A|----------------------------------------------------------------| x1
E|----------------------------------------------------------------|

G|----------------------------------------------------------------|
D|-0002-2222-5555-5555--------------------------------------------|
A|----------------------------------------------------------------| x2
E|----------------------------------------------------------------|

G|----------------------------------------------------------------|
D|-2-2-220---------5-5-555-5-5-7-9--------------------------------|
A|---------3-3-331------------------------------------------------| x3
E|----------------------------------------------------------------|

G|----------------------------------------------------------------|
D|-2-2-220--------------------------------------------------------|
A|---------3-3-331------------------------------------------------| x1
E|----------------------------------------------------------------|

G|----------------------------------------------------------------|
D|-0002-2222-5555-5555--------------------------------------------|
A|----------------------------------------------------------------| x10
E|----------------------------------------------------------------|

Thats pretty much it, I know it's not 100% but this should get a pretty rough idea. If 
don't like it tab it yourself.
            
Submit corrections

comments powered by Disqus
↑ Back to top | Killing Heidi Bass for Calm Down. Lyrics for acoustic guitar and electric guitar. Tablatures and chords are parodies/interpretations of the original songs. You may use it for private study, scholarship, research or language learning purposes only