» » »

Kid Rock, All Summer Long Tabs (ver.2)

Artists:  A B C D E F G H I J K L M N O P Q R S T U V W X Y Z # 

All Summer Long Tabs (ver.2)

Kid Rock Tabs
 Rating:
4.8/5 (19 votes)
All Summer Long lessons Tabs too difficult? Try these video lessons and learn fast
                Kid Rock

Standard Tuning

Intro: 
|---------||-----------------------------||
|---------||o---------------------------o||  repeat last part 4x
|---------||-----------------------------||
|---------||---7---5-5-------------------||
|-5-3h4h5-||o--5---3-3---5-5--5-5-3h4h5-o||
|-3-------||-------------3-3--3-3--------||


Verse 1 (only clean guitar) 
|-------------------|
|-------------------| 
|-------------------|
|-7--5-5------------|
|-5--3-3---5-5--5-5-|
|----------3-3--3-3-|

It was 1989, my thoughts were short my hair was long
Caught somewhere between a boy and man
She was seventeen and she was far from in-between
It was summertime in Northern Michigan
Ahh Ahh Ahh
Ahh Ahh Ahh


Intro to verse 2 (during Ahh Ahh Ahh):
|-------------------------------------------------|
|-------------------------------------------------|
|-14b-14vvv--12b-12vvv--12-12-14b-12-----------12-|
|-------------------------------------12-12h14----|
|-------------------------------------------------|
|-------------------------------------------------|

|------------------------------------------------------|
|-------------------------15---15-15b(15)r-------------|
|-14b-14vv--12b-12vvv--14b--14b-------------14bp12-12v-|
|------------------------------------------------------|
|------------------------------------------------------|
|------------------------------------------------------|

Verse 2 (clean guitar like verse 1 + riffs below)

Splashing through the sand bar
Talking by the campfire (Riff 1)
It's the simple things in life, like when and where (Riff 2)
We didn't have no internet
But man I never will forget
The way the (Riff 3) moonlight shined upon her hair
                                
1|-------------| 2|----3---3-| 3|-------------------|
 |-------------|  |-----3--3-|  |---7-9b-7h9p7-7vv--|
 |-------------|  |-/5-----4-|  |-/9-----------7----|
 |----5-7b-7vv-|  |--------5-|  |-------------------|
 |-5h7---------|  |----------|  |-------------------|
 |-------------|  |----------|  |-------------------|


Chorus (on the background chords of verse 1):   

||--10---10--10---10--10----10--10----10--10-----||
||o-10h12----10h12----10h12-----10h12-----10h12-o||
||-----------------------------------------------||
||-----------------------------------------------||
||o---------------------------------------------o||
||-----------------------------------------------||

And we were trying different things
we were smoking funny things
Making love out by the lake to our favorite song (A)
Sipping whiskey out the bottle, not thinking 'bout tomorrow
(B) Singing Sweet home Alabama all summer long
Singing Sweet home Alabama all summer long

A:
|-17b-17-15h17p15---15vv-|
|-----------------17-----|
|------------------------|
|------------------------|
|------------------------|
|------------------------|

B:
|-15b-15-15p13------------------------|
|-------------15-15b-15-15p13---------|
|----------------------------15-12vvv-|
|-------------------------------------|
|-------------------------------------|
|-------------------------------------|


Intro to verse 3
||------------------------||
||o----3------3--------3-o|| play this 2x
||------2------2-------2--||
||--0-0----------------0--||
||o--------3-3---------0-o||
||-----------------3-3----||


Verse 3 (clean guitar like verse 1 + riffs like verse 2) 

Catching Walleye from the dock
Watching the waves roll off the rocks (Riff 1)
She'll forever hold a spot inside my soul (Riff 2)
We'd blister in the sun
We couldn't wait for night to come
To hit that sand (Riff 3) and play some rock and roll


Chorus (like above):

While we were trying different things
And we were smoking funny things
Making love out by the lake to our favorite song
Sipping whiskey out the bottle, not thinking 'bout tomorrow
Singing Sweet Home Alabama all summer long
Singing Sweet Home Alabama all summer long


Pre-Solo:
||--------------------------||
||o----3-------3--------3--o|| play this 2x
||------2-------2-------2---||
||--0-0-----------------0---||
||o---------3-3---------0--o||
||----------------3-3-------||


Solo (on the background chords of verse 1):

||-13b-13-10h13p10-------------------------------------------------------|
||----------------13-10-13b---13-10----13----13----13----13--------------|
||----------------------------------12b---12b---12b---12b---12bp10----10v|
||-----------------------------------------------------------------12----|
||-----------------------------------------------------------------------|
||-----------------------------------------------------------------------|

-----------------------------------------------------------|
-----------------------------------------------------------|
-12b-10--10--12b-10--10--12b-10--10------------------------|
-------12----------12----------12----12-10-12p10-----------|
------------------------------------------------12p10------|
-----------------------------------------------------12-10-|

|--------------------------------------------------------9*-----|
|-------------------------------10b-10-8-10-8-------------------|
|---7-7\---7-7\---7-7-9-9bp7-7---------------9bp7-7---7-9---7vv-|
|-/9-9---/9-9---/9-9--------------------------------/9-----9----|
|---------------------------------------------------------------|
|---------------------------------------------------------------|

|-----------------------------------------------------------------------|
|----10-13p10---10-13p10----10-13p10---10-13p10----10-13p10----10-13p10-|
|-12b--------12b---------12b--------12b---------12b---------12b---------|
|-----------------------------------------------------------------------|
|-----------------------------------------------------------------------|
|-----------------------------------------------------------------------|

|------------------------10----10-13p10--10-13p10--10-13p10--10-13p10-|
|----10-13p10---10-13p10-----10--------10--------10--------10---------|
|-12b--------12b----------------------------------------------------|
|-------------------------------------------------------------------|
|-------------------------------------------------------------------|
|-------------------------------------------------------------------|

|---10-13p10--10-13p10--10-13p10--10-13p10----10----------------------------|
|-10--------10--------10--------10---------13b--13-10---10------------------|
|----------------------------------------------------12b--12-10--10-12b-10v-|
|--------------------------------------------------------------12-----------|
|---------------------------------------------------------------------------|
|---------------------------------------------------------------------------|

|------------------------------------------------10-----|
|----------------------------------------------10r--13b-|
|---------12--12b-10--10----------------12-12b----------|
|---------12--------12---12p10----------12--------------|
|-10h12-10----------------------10h12-10----------------|
|-------------------------------------------------------|

|---10-13p10--15p10--13p10--15p10--13p10---10-15p13p10--------------------||
|-10--------10-----10-----10-----10------10-----------13-10-13b-10--------||
|-----------------------------------------------------------------12b-10vv||
|-------------------------------------------------------------------------||
|-------------------------------------------------------------------------||
|-------------------------------------------------------------------------||


Intro to verse 4
|-------------------------------------------------|
|-------------------------------------------------|
|-14b-14vvv--12b-12vvv--12-12-14b-12-----------12-|
|-------------------------------------12-12h14----|
|-------------------------------------------------|
|-------------------------------------------------|

|------------------------------------------------------|
|-------------------------15---15-15b(15)r-------------|
|-14b-14vv--12b-12vvv--14b--14b-------------14bp12-12v-|
|------------------------------------------------------|
|------------------------------------------------------|
|------------------------------------------------------|


Verse 4 (clean guitar like verse 1):

Now nothing seems as strange as when the leaves began to change
Or how we thought those days would never end
Sometimes I'll hear that song and I'll start to sing along
And think man I'd love to see that girl again


Chorus (without the riffs) (2x)


Outro:

Play the chords as in verse 1 during:

Singing Sweet Home Alabama all summer long
Singing Sweet Home Alabama all summer long
Singing Sweet Home Alabama all summer long
Singing Sweet Home Alabama all summer long

Piano outro.
            
Submit corrections

comments powered by Disqus
↑ Back to top | Kid Rock Tabs for All Summer Long. Lyrics for acoustic guitar and electric guitar. Tablatures and chords are parodies/interpretations of the original songs. You may use it for private study, scholarship, research or language learning purposes only