» » »

Come Dig Me Out Tabs (ver.1)

Artists:  A B C D E F G H I J K L M N O P Q R S T U V W X Y Z # 

Come Dig Me Out Tabs (ver.1)

Kelly Osbourne
Rating:
4/5 (2 votes)

Hard to play? Try these video lessons and learn fast.
                Standart Tunnig (EADGBE)

The chord in brackets is what the second guitar plays while the first guitar
plays the cord without brackets.

Intro Riff:

E|----------------------------------------------------------------------------------|
B|----------------------------------------------------------------------------------|
G|------0---------0---------0---------0------------------------(1212121212121212)---|
D|----10--10----10--10----10--10----10--10---5555555555555555--(1212121212121212)---| 
A|--8---------8---------8---------8----------5555555555555555--(1010101010101010)---|
E|-------------------------------------------3333333333333333-----------------------|

E|-------------------------------------------------------------------------------|
B|-------------------------------------------------------------------------------|
G|------0---------0-------------------------(1212121212121212)-------4b(5)4------|
D|----10--10----10--10----5555555555555555--(1212121212121212)-------------------| 
A|--8---------8-----------5555555555555555--(1010101010101010)-------------------|
E|------------------------3333333333333333---------------------------------------|


Verse:

E|-----------------------------------------------------------------------------|
B|-----------------------------------------------------------------------------|
G|--------------------5555555555555555-----------------------5555555555555555--|
D|-5555555555555555---5555555555555555----2222222222222222---5555555555555555--|
A|-5555555555555555---3333333333333333----2222222222222222---3333333333333333--|
E|-3333333333333333-----------------------0000000000000000---------------------|

Pre-Chorus:

E|---------------------------------------------------------------------------------|
B|---------------------------------------------------------------------------------|
G|------0---------0---------0---------0------------------------(1212121212121212)--|
D|----10--10----10--10----10--10----10--10---5555555555555555--(1212121212121212)--| 
A|--8---------8---------8---------8----------5555555555555555--(1010101010101010)--|
E|-------------------------------------------3333333333333333----------------------|

E|-----------------------------------------------------------------------------|
B|-----------------------------------------------------------------------------|
G|------0---------0-------------------------(1212121212121212)-----------------| Guitar 2 plays the chord in brackets
D|----10--10----10--10----5555555555555555--(1212121212121212)-----------------| while Guitar 2 plays the G5 chord.
A|--8---------8-----------5555555555555555--(1010101010101010)-----------------|
E|------------------------3333333333333333-------------------------------------|

Chorus:

E|--------------------------------------------------------------------------------|
B|--------------------------------------------------------------------------------|
G|--5555555555555555-----------------------5555555555555555-----------------------|
D|--5555555555555555----7777777777777777---5555555555555555-----7777777777777777--|
A|--3333333333332222----7777777777777777---3333333333333222-----7777777777777777--|
E|----------------------5555555555555555------------------------5555555555555555--|

Post Chorus:

E|------------------------------------------------------------------------------------------|
B|------------------------------------------------------------------------------------------|
G|---------5-----------------------5-------------------5---------------------5--------------|
D|--5555---5--5--3333333----5555---5--5--333333--5555--5--5---3333333--5555--5--5---3333333-|
A|--5555---3--5--3333333----5555---3--5--333333--5555--3--5---3333333--5555--3--5---3333333-|
E|--3333------3--1111111----3333------3--111111--3333-----3---1111111--3333-----3---1111111-|

Bridge:

E|---------------------------------------------------------------------------------------------------------------------------------------|
B|---------------------------------------------------------------------------------------------------------------------------------------|
G|------------------555555555555---------------------77777777777------0-------0-------0-------0------------------------(1212121212121212)|
D|7777777--5555555--555555555555---7777777--5555555--77777777777----10-10---10-10---10-10---10-10----5555555555555555--(1212121212121212)|
A|7777777--5555555--333333333333---7777777--5555555--55555555555---8-------8-------8-------8---------5555555555555555--(1010101010101010)|
E|5555555--3333333-----------------5555555--3333333--------------------------------------------------3333333333333333--------------------|
        (Never thought...)

then again:

E|--------------------------------------------------------|
B|--------------------------------------------------------|
G|-----0-------0----------------------(1212121212121212)--|
D|---10-10---10-10--5555555555555555--(1212121212121212)--|
A|--8-------8-------5555555555555555--(1010101010101010)--|
E|------------------3333333333333333----------------------|

Chorus:
Post Chorus:

Solo: (Listen to the song for the strumming)

E|------------------------------------------------------------|
B|------------------------------------------------------------|
G|--12-12-10-7-10--12-12--10-10--12-12-10--17--16---14--14----| Guitar 2 plays the post chorus cords
D|---X--X--X-X--X---X--X---X-X----X--X--X---X---X----X---X----|
A|--10-10--8-9--8--10-10---8-8---10-10--8--15--14---12--12----|
E|------------------------------------------------------------|

End:
Guitar 1
E|---------------------------------------------------|
B|---------------------------------------------------|
G|---1212121212--1212121212--1212121212--1212121212--|
D|----X-X-X-X-X---X-X-X-X-X---X-X-X-X-X---X-X-X-X-X--|
A|---1010101010--1010101010--1010101010--1010101010--|
E|---------------------------------------------------|

Guitar2
E|----------------------------------|
B|----------------------------------|
G|----------------------------------|
D|---55555--55555--55555--55555-----|
A|---33333--55555--55555--55555-----|
E|---33333--33333--33333--33333-----|

Enjoy!!
            
Hard to play? Try these video lessons and learn fast. | Correct




comments powered by Disqus
↑ Back to top | Tablatures and chords are parodies/interpretations of the original songs. You may use it for private study, scholarship, research or language learning purposes only