» » »

Keller Williams, Gate Crashers Suck Tabs (ver.1)

Artists:  A B C D E F G H I J K L M N O P Q R S T U V W X Y Z # 

Gate Crashers Suck Tabs (ver.1)

Keller Williams Tabs
Rating:
4/5 (2 votes)
Gate Crashers Suck lessons Tabs too difficult? Try these video lessons and learn fast
                For those of you who are sick of looking at guitar tabs that don't sound anything like
song, this is for you.  It seems like everytime I look up a guitar tab, I have to filter
at least 5 tabs to get the correct version.  Who takes the time to submit a tab when it 
clearly wrong.  So for you keller fans, this guitar tab is exactly right.  Any version
this song that you download or dub from a show, this is how it is played.  Don't even 
at the other tabs.

P.S. - this is my first tab(and it is out of frustration).

YOU DON'T NEED A CAPO!
THIS TAB IS FOR MY BOYS DONNIE AND KALS. And MOM AND DAD.
LISTEN TO THE SONG 3 TIMES IN A ROW AND YOU WILL FEEL THE CHORDS.
AND LAST OF ALL, don't be afraid to sing the song, friends will enjoy it if you bust it
at a campfire.

Chords - he uses the same chords, but in different ways throughout the song.  I am just
to show the chords, not how many times you have to strum them.  This is why I say listen
the song (mainly his strumming) 3 times before you try to play it.

CHORDS::::::::::::::

Intro:    F      A#  - (before he starts to sing. play with the chords.)
E-------------------------------------------------------|
B-------------------------------------------------------|
G----------------3--------------------------------------|
D---------3------3--------------------------------------|
A---------3----0h1--------------------------------------|
E---------1---------------------------------------------|

Chords Throught the song

   F  (F)        C  (C)      A#  (A) A*
E------1-------------3------------1----------------------|
B------1-------------5------------3----------------------|
G------2---------5---5-------3----3----------------------|
D--3---3---------5---5-------3----3----------------------|
A--3---3---------3---3-------1----1----------------------|
E--1---1---------x---X-------X----X----------------------|


E------------------------|-------------------------------|
B------------------------|-------------------------------|
G------------------------|-------------------------------|
D------------------------|-------------------------------|
A------------------------|-------------------------------|
E------------------------|-------------------------------|


I was there at Deer Creek back in nineteen ninety five
G              D             C
I think it was June maybe July
               D
But Jerry was still alive
C                     D
All the kids in that parking lot
     G      D         Em      C
They tore that fence down
         D
And I blamed them
         C                   D
For the second show getting cancelled.
C                   D
 I really wanted to go
  G        D         Em
I saved up all of my dough
         C               D
I didn't go to any other shows
      G      D       Em
And I got my tickets M.O.
      C                         D
And I never missed a Deer Creek show
      G             D      Em
      C~
I was happy just to be alive
      D~
On my yearly Indiana vacation

C                D          G         D
But that was cut short by a bunch of jealous,
Em                   C               D               G~
party bashin', buzz thrashin', gate crashin', stinky bastards
              C
And if you're one of them
        D
And you hear this song
      G   D   C
f**k you
     D                 G       D     C
You cock sucking motherf**ker

repeat that a few times

      G
f**k You


This is a great song, and i couldnt find any tabs anywhere online so i decided to try
it out myself. Hope this helps.

Doug Phelps
            

comments powered by Disqus
↑ Back to top | Keller Williams Tabs for Gate Crashers Suck. Lyrics for acoustic guitar and electric guitar. Tablatures and chords are parodies/interpretations of the original songs. You may use it for private study, scholarship, research or language learning purposes only