» » »

Keith Urban, Stupid Boy Tabs (ver.2)

Artists:  A B C D E F G H I J K L M N O P Q R S T U V W X Y Z # 

Stupid Boy Tabs (ver.2)

Keith Urban Tabs
Rating:
0/5 (0 votes)
Hard to play? Try these video lessons and learn fast.
                -------------------------------------------------------------------
                   Keith Urban-Stupid Boy
-------------------------------------------------------------------

| /  slide up
| \  slide down
| h  hammer-on
| p  pull-off
| ~  vibrato
| () lightly played note
| b  bend

I have to give credit to FenderFan521 from another site for coming up with the basis for
intro.  This is a revised version of his/hers.  I may not have included every strum for
tab.  Listen to the song to get the strumming pattern down...it's not hard.  I'm working 
the solos and will post them as soon as I'm done.

Tuning:  Drop D w/capo 1st fret


Intro.

e-------------------------------------------|-----------------------------------------------|
B------------3-3-3------2-2-x-x-2-2-2-2---2-|------------3-3----------2-2-----2-2-2-2-2---2-|
G--2s4-4-x-x-2-2-2-2p0--2-2-x-x-2-2-2-2---2-|--2s4-4-x-x-2-0h2p0------2-2-----2-2-2-2-2---2-|
D--0---0-x-x-0-0-0----4-2-2-x-x-2-2-2-2p0-0-|--0---0-x-x-0------4-2-0-2-2-2/4\2-2-2-2-2p0-0-|
A--x---x-x-x-0----------0-0-x-x-0-0-0-0---0-|--x---x-x-x-0------------0-0-0---0-0-0-0-0---0-|
D--5---5-x-x-0------------------------------|--5---5-x-x-0----------------------------------|


Verse 1

          precious...............wild...........................
------------------------------|----------------------------------|
--3-3-----3---3-2-2-x-x-2-2-2-|--3-3-----3---3-2-2h3-2-2---------|
--0-0-x-x-2---2-2-2-x-x-2-2-2-|--0-0-x-x-2---2-2-2---2-2-2---2---|
--0-0-x-x-0---0-2-2-x-x-2-2-2-|--0-0-x-x-0---0-2-2---2-2-2h4-2p0-|
--x-x-x-x-0-0-0-0-0-x-x-0-0-0-|--x-x-x-x-0-0-0-0-0---0-0-0---0---|
--5-5-x-x-0-0-4---------------|--5-5-x-x-0-0-4-------------------|

          prayer.................everything.............
------------------------------|--------------------------|
--3-3-----3---3-2-2-x-x-2-2-2-|--3-3-----3---3-2-2h3-2-2-|
--0-0-x-x-2---2-2-2-x-x-2-2-2-|--0-0-x-x-2---2-2-2---2-2-|
--0-0-x-x-0---0-2-2-x-x-2-2-2-|--0-0-x-x-0---0-2-2---2-2-|
--x-x-x-x-0-0-0-0-0-x-x-0-0-0-|--x-x-x-x-0-0-0-0-0---0-0-|
--5-5-x-x-0-0-4---------------|--5-5-x-x-0-0-4-----------|


Pre-Chorus

boy.............you..............boy.............holdin.......
--5-5---------------------------|--5-5-------------------------|
--3-3-----3---3-2-2-x-x-2-2-2-2-|--3-3-----3---3-2-2-x-x-2-2-2-|
--0-0-x-x-2---2-2-2-x-x-2-2-2-2-|--0-0-x-x-2---2-2-2-x-x-2-2-2-|
--0-0-x-x-0---0-2-2-x-x-2-2-2-2-|--0-0-x-x-0---0-2-2-x-x-2-2-2-|
--x---x-x-0-0-0-0-0-x-x-0-0-0-0-|--x---x-x-0-0-0-0-0-x-x-0-0-0-|
--5---x-x-0-0-4-----------------|--5---x-x-0-0-4---------------|


Chorus

 laid......soul...................stole.....dream................
--5-5---------------------------|--5-5---------------------------|
--3-3-----3---3-2-2-2h3-2-2-2-2-|--3-3-----3---3-2-2-2h3-2-2-2-2-|
--0-0-x-x-2---2-2-2-2---2-2-2-2-|--0-0-x-x-2---2-2-2-2---2-2-2-2-|
--0-0-x-x-0---0-2-2-2---2-2-2-2-|--0-0-x-x-0---0-2-2-2---2-2-2-2-|
--x---x-x-0-0-0-0-0-0---0-0-0-0-|--x---x-x-0-0-0-0-0-0---0-0-0-0-|
--5---x-x-0-0-4-----------------|--5---x-x-0-0-4-----------------|

 even.....had...that's....when.........voice....tellin........
--5-5-----------2-2-2---------------|--5-5---------------------|
--3-3-----3---3-3-3-3-x-x-2-2-2-x-x-|--3-3-----3---3-2-2-x-x-2-|
--0-0-x-x-2---2-4-4-4-x-x-2-2-2-x-x-|--0-0-x-x-2---2-2-2-x-x-2-|
--0-0-x-x-0---0-4-4-4-x-x-2-2-2-x-x-|--0-0-x-x-0---0-2-2-x-x-2-|
--x---x-x-0-0-0-2-2-2-x-x-0-0-0-x-x-|--x---x-x-0-0-0-0-0-x-x-0-|
--5---x-x-0-0-4---------------------|--5---x-x-0-0-4-----------|


Break

Guitar 1-Acoustic
-------------------------------------------|-----------------------------------------------|
------------3-3-3------2-2-x-x-2-2-2-2---2-|------------3-3----------2-2-----2-2-2-2-2---2-|
--2s4-4-x-x-2-2-2-2p0--2-2-x-x-2-2-2-2---2-|--2s4-4-x-x-2-0h2p0------2-2-----2-2-2-2-2---2-|
--0---0-x-x-0-0-0----4-2-2-x-x-2-2-2-2p0-0-|--0---0-x-x-0------4-2-0-2-2-2/4\2-2-2-2-2p0-0-|
--x---x-x-x-0----------0-0-x-x-0-0-0-0---0-|--x---x-x-x-0------------0-0-0---0-0-0-0-0---0-|
--5---5-x-x-0------------------------------|--5---5-x-x-0----------------------------------|


Guitar 2-Electric
-------------------------------------------|-----------------------------------------------|
--9h10~~~~~~~10-8-7-5-5-5h7p5~~~~~~~-------|--9h10~~~~~~~10-8-7-5-5-5h7p5~~~~~~s3~~~~~~~~~~|
-------------------------------------------|-----------------------------------------------|
-------------------------------------------|-----------------------------------------------|
-------------------------------------------|-----------------------------------------------|
-------------------------------------------|-----------------------------------------------|

Verse 2

           think.................push it.............................
--5-5-------------------------|--5-5----------------------------------|
--3-3-----3---3-2-2-x-x-2-2-2-|--3-3-----3---3-2-2-x-x-2-2-3p2-3p2-2--|
--0-0-x-x-2---2-2-2-x-x-2-2-2-|--0-0-x-x-2---2-2-2-x-x-2-2-2---2---2--|
--0-0-x-x-0---0-2-2-x-x-2-2-2-|--0-0-x-x-0---0-2-2-x-x-2-2-2---2---2--|
--x---x-x-0-0-0-0-0-x-x-0-0-0-|--x---x-x-0-0-0-0-0-x-x-0-0-0---0---0--|
--5---x-x-0-0-4---------------|--5---x-x-0-0-4------------------------|

        yourself.................take her...............
--5-5-------------------------|--5-5---------------------|
--3-3-----3---3-2-2-x-x-2-2-2-|--3-3-----3---3-2-2-2-2-2-|
--0-0-x-x-2---2-2-2-x-x-2-2-2-|--0-0-x-x-2---2-2-2-2-2-2-|
--0-0-x-x-0---0-2-2-x-x-2-2-2-|--0-0-x-x-0---0-2-2-2-2-2-|
--x---x-x-0-0-0-0-0-x-x-0-0-0-|--x---x-x-0-0-0-0-0-0-0-0-|
--5---x-x-0-0-4---------------|--5---x-x-0-0-4-----------|


Chorus

laid......soul...................stole.....dream.................
--5-5---------------------------|--5-5-------------------------|
--3-3-----3---3-2-2-2h3-2-2-2-2-|--3-3-----3---3-2-2-2-2-2-2-2-|
--0-0-x-x-2---2-2-2-2---2-2-2-2-|--0-0-x-x-2---2-2-2-2-2-2-2-2-|
--0-0-x-x-0---0-2-2-2---2-2-2-2-|--0-0-x-x-0---0-2-2-2-2-2-2-2-|
--x---x-x-0-0-0-0-0-0---0-0-0-0-|--x---x-x-0-0-0-0-0-0-0-0-0-0-|
--5---x-x-0-0-4-----------------|--5---x-x-0-0-4---------------|

 even.....had...that's....when.........voice....tellin........
--5-5-----------2-2-2---------------|--5-5---------------------|
--3-3-----3---3-3-3-3-x-x-2-2-2-x-x-|--3-3-----3---3-2-2-x-x-2-|
--0-0-x-x-2---2-4-4-4-x-x-2-2-2-x-x-|--0-0-x-x-2---2-2-2-x-x-2-|
--0-0-x-x-0---0-4-4-4-x-x-2-2-2-x-x-|--0-0-x-x-0---0-2-2-x-x-2-|
--x---x-x-0-0-0-2-2-2-x-x-0-0-0-x-x-|--x---x-x-0-0-0-0-0-x-x-0-|
--5---x-x-0-0-4---------------------|--5---x-x-0-0-4-----------|


Bridge
                 ooooohh...................lost......thing...made................
--5-5-5-5-5-2-2-2-2---------------------|--5-5-5-5-5-----------------------------|
--3-3-3-3-3-3-3-3-3-2-2-2-2-2-2-2-2-2-2-|--3-3-3-3-3-3-3-3-3-2-2-2-2-2-2-2-2-2-2-|
--0-0-0-0-0-4-4-4-4-2-2-2-2-2-2-2-2-2-2-|--0-0-0-0-0-2-2-2-2-2-2-2-2-2-2-2-2-2-2-|
--0-0-0-0-0-4-4-4-4-2-2-2-2-2-2-2-2-2-2-|--0-0-0-0-0-0-0-0-0-2-2-2-2-2-2-2-2-2-2-|
--x-x-x-x-x-2-2-2-2-0-0-0-0-0-0-0-0-0-0-|--x-x-x-x-x-0-0-0-0-0-0-0-0-0-0-0-0-0-0-|
--5-5-5-5-5-----------------------------|--5-5-5-5-5-0-0-0-0---------------------|


Solo

Guitar 1-Acoustic

--5-5-5-5-5-2-2-2-2---------------------|--5-5-5-5-5-2-2-2-2---------------------|
--3-3-3-3-3-3-3-3-3-2-2-2-2-2-2-2-2-2-2-|--3-3-3-3-3-3-3-3-3-2-2-2-2-2-2-2-2-2-2-|
--0-0-0-0-0-4-4-4-4-2-2-2-2-2-2-2-2-2-2-|--0-0-0-0-0-4-4-4-4-2-2-2-2-2-2-2-2-2-2-|
--0-0-0-0-0-4-4-4-4-2-2-2-2-2-2-2-2-2-2-|--0-0-0-0-0-4-4-4-4-2-2-2-2-2-2-2-2-2-2-|
--x-x-x-x-x-2-2-2-2-0-0-0-0-0-0-0-0-0-0-|--x-x-x-x-x-2-2-2-2-0-0-0-0-0-0-0-0-0-0-|
--5-5-5-5-5-----------------------------|--5-5-5-5-5-----------------------------|

Chorus

Guitar 1-Acoustic

laid......soul...................stole.....dream.................
--5-5---------------------------|--5-5-------------------------|
--3-3-----3---3-2-2-2h3-2-2-2-2-|--3-3-----3---3-2-2-2-2-2-2-2-|
--0-0-x-x-2---2-2-2-2---2-2-2-2-|--0-0-x-x-2---2-2-2-2-2-2-2-2-|
--0-0-x-x-0---0-2-2-2---2-2-2-2-|--0-0-x-x-0---0-2-2-2-2-2-2-2-|
--x---x-x-0-0-0-0-0-0---0-0-0-0-|--x---x-x-0-0-0-0-0-0-0-0-0-0-|
--5---x-x-0-0-4-----------------|--5---x-x-0-0-4---------------|

 even.....had...that's....when.........voice....tellin........
--5-5-----------2-2-2---------------|--5-5---------------------|
--3-3-----3---3-3-3-3-x-x-2-2-2-x-x-|--3-3-----3---3-2-2-x-x-2-|
--0-0-x-x-2---2-4-4-4-x-x-2-2-2-x-x-|--0-0-x-x-2---2-2-2-x-x-2-|
--0-0-x-x-0---0-4-4-4-x-x-2-2-2-x-x-|--0-0-x-x-0---0-2-2-x-x-2-|
--x---x-x-0-0-0-2-2-2-x-x-0-0-0-x-x-|--x---x-x-0-0-0-0-0-x-x-0-|
--5---x-x-0-0-4---------------------|--5---x-x-0-0-4-----------|


Break

Guitar 1-Acoustic
-------------------------------------------|-----------------------------------------------|
------------3-3-3------2-2-x-x-2-2-2-2---2-|------------3-3----------2-2-----2-2-2-2-2---2-|
--2s4-4-x-x-2-2-2-2p0--2-2-x-x-2-2-2-2---2-|--2s4-4-x-x-2-0h2p0------2-2-----2-2-2-2-2---2-|
--0---0-x-x-0-0-0----4-2-2-x-x-2-2-2-2p0-0-|--0---0-x-x-0------4-2-0-2-2-2/4\2-2-2-2-2p0-0-|
--x---x-x-x-0----------0-0-x-x-0-0-0-0---0-|--x---x-x-x-0------------0-0-0---0-0-0-0-0---0-|
--5---5-x-x-0------------------------------|--5---5-x-x-0----------------------------------|


Verse 3
          while................................was..............
--5-5-------------------------------|--5-5-----------------------|
--3-3-----3-3-3-3-2-2-x-x-2-2-2-2-2-|--3-3-----3-3-3-3-2-2-x-x-2-|
--0-0-x-x-2-2-2-2-2-2-x-x-2-2-2-2-2-|--0-0-x-x-2-2-2-2-2-2-x-x-2-|
--0-0-x-x-0-0-0-0-2-2-x-x-2-2-2-2-2-|--0-0-x-x-0-0-0-0-2-2-x-x-2-|
--x-x-x-x-0-0-0-0-0-0-x-x-0-0-0-0-0-|--x-x-x-x-0-0-0-0-0-0-x-x-0-|
--5-5-x-x-0-0-0-4-------------------|--5-5-x-x-0-0-0-4-----------|
            

comments powered by Disqus
↑ Back to top | Keith Urban Tabs for Stupid Boy. Lyrics for acoustic guitar and electric guitar. Tablatures and chords are parodies/interpretations of the original songs. You may use it for private study, scholarship, research or language learning purposes only