» » »

Keith Urban, She's Gotta Be Tabs (ver.1)

Artists:  A B C D E F G H I J K L M N O P Q R S T U V W X Y Z # 

She's Gotta Be Tabs (ver.1)

Keith Urban Tabs
 Rating:
4/5 (4 votes)
She's Gotta Be lessons Tabs too difficult? Try these video lessons and learn fast
                Hey Everybody this is my take on Keith Urbans “Shes’s Gotta Be
I was just trying to figure it out, I hope it helps, I havent figured out the
whole song yet but I'll update later

Capo On II ( Live Version)
	Slide Up
e------------------------------------------------------------------------------|
b---3----/-----5----/----8----/----10-----/------12------\-------3-----3-------|
g---2-----/----4----/-----------------------------------------------2-----2----|
d---3---/-----5----/----8---/------10----/------12-------\---------3------3----|
a------------------------------------------------------------------------------|
E------------------------------------------------------------------------------|

e-----------------------------------------------------------|
b---3----/-----5----/----8----/----10-----/------12---------|
g---2-----/----4----/---------------------------------------|
d---3---/-----5----/----8---/------10----/------12----------|
a-----------------------------------------------------------|
E-----------------------------------------------------------|

e----------------------------------------------------------------------------------|
b---3----/-----5----/----8----/----10-----/------12------\-------3-----1-----------|
g---2-----/----4----/-----------------------------------------------2--------------|
d---3---/-----5----/----8---/------10----/------12-------\-------3--------2--------|
a-------------------------------------------------------------------------------3--|
E----------------------------------------------------------------------------------|


Do the same with the lyrics until the Chorus

The Chorus:

Shes gotta be over me now
 G                                  Cadd9
Probably moved on with her life
Em
And found someone she knows she can believe
                                           F                        G
God I would give anything, If I could just go back again
   G                             C                                             Em
And be the man she needed me to be
       F
            
Submit corrections

comments powered by Disqus
↑ Back to top | Keith Urban Tabs for She's Gotta Be. Lyrics for acoustic guitar and electric guitar. Tablatures and chords are parodies/interpretations of the original songs. You may use it for private study, scholarship, research or language learning purposes only