» » »

Keane, My Shadow Chords (ver.1)

Artists:  A B C D E F G H I J K L M N O P Q R S T U V W X Y Z # 

My Shadow Chords (ver.1)

Keane Tabs
 Rating:
4/5 (4 votes)
My Shadow lessons Tabs too difficult? Try these video lessons and learn fast
                MY SHADOW
KEANE



STANDARD TUNING - NO CAPO

Dmaj7  xx0222

INTRO: Dmaj7 

VERSE:
     Dmaj7
It's time to make a start
   A
To get to know your heart
Dmaj7
Time to show your face
A
Time to take your place

Dmaj7 - A

Piano Riff:
       
e|----------------------14--14----------12------12---|     x2
B|---14-14-----14-14------------14--14------14-------|
G|---------14--------14------------------------------|
D|---------------------------------------------------|
A|---------------------------------------------------|
E|---------------------------------------------------|

VERSE:
   Dmaj7
In every speck of dust
   A
In every universe
     Dmaj7
When you feel most alone
    A
You will not be alone

PRECHORUS:
             D
Just shine a light on me
C#m     D         C#m
Shine a light
             D 
I'll shine a light on you
C#m          D
Shine a light

CHORUS:
             E       F#m           D
And you will see my shadow
E    F#m     D   
On every wall
             E       F#m           D
And you will see my footprints
E    F#m     D   
On every floor

Dmaj7 - A

Piano Riff:
       
e|----------------------2---2-----------0-------0----|     x2
B|---2--2------2--2-------------2---2-------2--------|
G|---------2---------2-------------------------------|
D|---------------------------------------------------|
A|---------------------------------------------------|
E|---------------------------------------------------|

VERSE:
   Dmaj7
It only takes a spark
   A
To tear the world apart
      Dmaj7
These tiny little things
     A
That make it all begin

PRECHORUS:
             D
Just shine a light on me
C#m     D         C#m
Shine a light
             D 
I'll shine a light on you
C#m          D
Shine a light

CHORUS:
             E       F#m           D
And you will see my shadow
E    F#m     D   
On every wall
             E       F#m           D
And you 'll see my reflection
E        F#m     D   
In your freefall

SOLO:
       D       F#m               D         F#m 
e|-------------------------|-------------------------|
B|-------------------------|-------------------------|     / slide
G|-------------------------|-------------------------|
D|-------------------------|-------------------------|
A|----9/7/4----------------|----7/9/7/4--------------|
E|-------------7/9/7/2-----|-------------7/9/7/2-----|

Ooooooooh


PRECHORUS:
             D
Just shine a light on me
C#m     D         C#m
Shine a light
             D 
I'll shine a light on you
C#m          D
Shine a light

OUTRO::
              D                  A       E   F#m
Cos when your back's against the wall
                D                A      E
That's when you show no fear at all
                 D             A      E    F#m
And when you're running out of time
                D                  A    E       
That's when you hitch your star to mine

             D             A          E           F#m           D   A  E
We won't be leaving by the same road that we came by
             D             A          E           F#m           D   A  E
We won't be leaving by the same road that we came by
             D             A          E           F#m           D   A  E
We won't be leaving by the same road that we came by
             D             A          E           F#m           D   A  E
We won't be leaving by the same road that we came by

D5  |  D5  E5  |       x4

End on D5.
            
Submit corrections

comments powered by Disqus
↑ Back to top | Keane Chords for My Shadow. Lyrics for acoustic guitar and electric guitar. Tablatures and chords are parodies/interpretations of the original songs. You may use it for private study, scholarship, research or language learning purposes only