» » »

Crystal Ball Tabs (ver.1)

Artists:  A B C D E F G H I J K L M N O P Q R S T U V W X Y Z # 

Crystal Ball Tabs (ver.1)

Keane
Rating:
0/5 (0 votes)

Tabs too difficult? Try these video lessons and learn fast.
                Keane - Crystal Ball (Solo)


This is my first tab, so please don't be too harsh in your criticisms. This was done 
ear, so probably won't be perfect.

(##) means the double-digit number (don't want to get for example 10 confused with 1 and 0)

3:08
- play this whole part (from (10)--.. to 6-8----------------------| three times:
e|----------------------------------------------------------------|
B|----------------------------------------------------------------|
G|-------------------------------8--(13)(10)----------------------|
D|-(10)--(11)-(10)-8-(11)-(10)-8---------------(10)--(11)-(10)-8--|
A|----------------------------------------------------------------|
E|----------------------------------------------------------------|

e|---------------------------------------------------------------------------|
B|---------------------------------------------------------------------------|
G|---------------------------------------------------------------------------|
D|--(10)-8-6-8--6-8----------------------------------------------------------|
A|---------------------------------------------------------------------------|
E|---------------------------------------------------------------------------|

then play this two times:
e|---------------------------------------------------------------------------|
B|---------------------------------------------------------------------------|
G|---------------------------------------------------------------------------|
D|--(10)--(11)-(10)-8-(10)-8-6-8--6-8----------------------------------------|
A|---------------------------------------------------------------------------|
E|---------------------------------------------------------------------------|

then (not sure about this ending):
e|-----------------------0---------------------------------------------------|
B|-----------------------1---------------------------------------------------|
G|-----------------------2---------------------------------------------------|
D|--(10)-(11)-(10)-(11)--2---------------------------------------------------|
A|-----------------------0---------------------------------------------------|
E|-----------------------0---------------------------------------------------|
            
Tabs too difficult? Try these video lessons and learn fast.




comments powered by Disqus
↑ Back to top | Tablatures and chords are parodies/interpretations of the original songs. You may use it for private study, scholarship, research or language learning purposes only