» » »

Keane, Bend And Break Bass tabs (ver.1)

Artists:  A B C D E F G H I J K L M N O P Q R S T U V W X Y Z # 

Bend And Break Bass tabs (ver.1)

Keane Tabs
 Rating:
4/5 (4 votes)
Bend And Break lessons Tabs too difficult? Try these video lessons and learn fast
1
                +++++++++++++++++++++++
| Keane- Bend & Break |
+++++++++++++++++++++++


"Ill meet you in the light..."


Tuning: EADG




Intro
1.
G|---------------------------------------------------------------------------------------|
D|-22-2-22-2-1/2-2-22-2-1/2-2-22-2-1/2-2-22-2-22-2-22-2-1/2-2-22-2-1/2-2-22-2-1/2-2-22-2-|
A|---------------------------------------------------------------------------------------|
E|---------------------------------------------------------------------------------------|

Verse
"When you forget your name..."
2.
G|----------------------------------------------|
D|-2-2-22-2-2-22/4-4-44-------------------------|
A|----------------------4-4-44-0-00-00-0-00-2-2-|
E|----------------------------------------------|

"When old faces all look the same..."
3.
G|----------------------------------------------|
D|-2-2-22-2-2-22/4-4-44---------------------6-6-|
A|----------------------4-4-44-0-00-00-0-00-----|
E|----------------------------------------------|

Pre-Chorus
"Meet me in the morning..."
4.
G|-----------------------------------------------------------------|
D|-4-44-44-------------------------4-44-44-------------------------|
A|---------0-00-00-2-22-22-2-22-22---------0-00-00-2-22-22-2-22-22-|
E|-----------------------------------------------------------------|

Chorus
"If only I dont bend and break..."
5.
G|------------------------------------------------------------------|
D|-2-22-22/6-66-66------777-6-66-66-4-44-44---------6-66-66---------|
A|-----------------0-00---------------------2-22-22---------0-00-00-|
E|------------------------------------------------------------------|

"If only I dont suffocate..."
6.
G|--------------------------------------------------|
D|-2-22-22/6-66-66------777-6-66-66-4-44-44---------|
A|-----------------0-00---------------------2-22-22-|
E|--------------------------------------------------|

Verse
"Bitter and hardened heart..."
7.
G|--------------------------------------------------|
D|-2-22-22/6-66-66-4-44-44--------------------------|
A|-------------------------4-44-44-0-00-00-0-00-2-2-|
E|--------------------------------------------------|

"Aching waiting for life to start..."
8.
G|--------------------------------------------------|
D|-2-22-22/6-66-66-4-44-44----------------------6-6-|
A|-------------------------4-44-44-0-00-00-0-00-----|
E|--------------------------------------------------|

Pre-Chorus
"Meet me in the morning..."
9.
G|-------------------------------------------------------------------|
D|-4-44-44---------------------------4-44-44-------------------------|
A|---------0-00-00-2-22-22-0h2-22-22---------0-00-00-2-22-22-2-22-22-|
E|-------------------------------------------------------------------|

Chorus
"If only I dont bend and break..."
10.
G|------------------------------------------------------------------|
D|-2-22-22/6-66-66------777-6-66-66-4-44-44---------6-66-66---------|
A|-----------------0-00---------------------2-22-22---------0-00-00-|
E|------------------------------------------------------------------|

"If only I dont suffocate..."
11.
G|--------------------------------------------------|
D|-2-22-22/6-66-66------777-6-66-66-4-44-44---------|
A|-----------------0-00---------------------2-22-22-|
E|--------------------------------------------------|

Outro
12.
G|-------------------|
D|-2~----------------|
A|-------------------|
E|-------------------|

Bridge
13.
G|------------------------------------------------------------------|
D|-4-4-4-4-------------------------4-4-4-4--------------------------|
A|---------0-0-0-0-2-2-2-2-2-2-2-2---------0-0-0-0-2-2-2-2-22222222-|
E|------------------------------------------------------------------|

Chorus
"If only I dont bend and break..."
14.
G|------------------------------------------------------------------|
D|-2-22-22/6-66-66------777-6-66-66-4-44-44---------6-66-66---------|
A|-----------------0-00---------------------2-22-22---------0-00-00-|
E|------------------------------------------------------------------|

"If only I dont suffocate..."
15.
G|--------------------------------------------------|
D|-2-22-22/6-66-66------777-6-66-66-4-44-44---------|
A|-----------------0-00---------------------2-22-22-|
E|--------------------------------------------------|

16.
G|------------------------------------------------------------------|
D|-2-22-22/6-66-66------777-6-66-66-4-44-44---------6-66-66---------|
A|-----------------0-00---------------------2-22-22---------0-00-00-|
E|------------------------------------------------------------------|

"If only I dont suffocate..."
17.
G|--------------------------------------------------|
D|-2-22-22/6-66-66------777-6-66-66-4-44-44---------|
A|-----------------0-00---------------------2-22-22-|
E|--------------------------------------------------|

Outro
18.
G|-------------------|
D|-2~----------------|
A|-------------------|
E|-------------------|

Please rate thanks!!


Lyrics:

When you, when you forget your name
When old faces all look the same
Meet me in the morning when you wake up
Meet me in the morning then you'll wake up 
If only I don't bend and break
I'll meet you on the other side
I'll meet you in the light
If only I don't suffocate
I'll meet you in the morning when you wake 

Bitter and hardened heart
Aching waiting for life to start
Meet me in the morning when you wake up
Meet me in the morning then you'll wake up 



+++++++++++++++++++++++++++++++++
| Raileff                       |
+++++++++++++++++++++++++++++++++
            
Submit corrections

comments powered by Disqus
↑ Back to top | Keane Bass for Bend And Break. Lyrics for acoustic guitar and electric guitar. 1 Tablatures and chords are parodies/interpretations of the original songs. You may use it for private study, scholarship, research or language learning purposes only