» » »

Katy Perry, Self-inflicted Tabs (ver.1)

Artists:  A B C D E F G H I J K L M N O P Q R S T U V W X Y Z # 

Self-inflicted Tabs (ver.1)

Katy Perry Tabs
 Rating:
4/5 (4 votes)
Self-inflicted lessons Tabs too difficult? Try these video lessons and learn fast
1
                verse
e|----------------------------------------------------|
B|----------------------------------------------------|
G|---7--------7-------------------7-------------------|
D|---7--------7-------4-----5-----7-----4-----5-------| 2x
A|---5--------5-------4-----5-----5-----4-----5-------|
E|--------------------2-----3-----------2-----3-------|

per chorus
e|----------------------|
B|----------------------|
G|---4------------------|
D|---4-----5----7-------|
A|---2-----5----7-------|
E|---------3----5-------|

chorus
e|----------------------------------------------------|
B|----------------------------------------------------|
G|----7---------------4-------------------------------|
D|----7-------7-------4-------4-------5-------7-------| 2x
A|----5-------7-------2-------4-------5-------7-------|
E|------------5---------------2-------3-------5-------|

e|---------------------|
B|---------------------|
G|---------------------|
D|-----5-------7-------|
A|-----5-------7-------|
E|-----3-------5-------|


verse
e|----------------------------------------------------|
B|----------------------------------------------------|
G|---7--------7-------------------7-------------------|
D|---7--------7-------4-----5-----7-----4-----5-------| 2x
A|---5--------5-------4-----5-----5-----4-----5-------|
E|--------------------2-----3-----------2-----3-------|

per chorus
e|----------------------|
B|----------------------|
G|---4------------------|
D|---4-----5----7-------|
A|---2-----5----7-------|
E|---------3----5-------|

chorus
e|----------------------------------------------------|
B|----------------------------------------------------|
G|----7---------------4-------------------------------|
D|----7-------7-------4-------4-------5-------7-------| 2x
A|----5-------7-------2-------4-------5-------7-------|
E|------------5---------------2-------3-------5-------|

e|---------------------|--------------|
B|---------------------|--------------|
G|---------------------|------7-------|
D|-----5-------7-------|------7-------|
A|-----5-------7-------|------5-------|
E|-----3-------5-------|--------------|


bridge
e|---------------------|----------------------------|
B|---------------------|----------------------------|
G|----4----------------|----4---------------7-------|
D|----4-------5--------|----4-------5-------7-------|
A|----2-------5--------|----2-------5-------5-------|
E|------------3--------|------------3---------------|

(repeat chorus) 2x
            
Submit corrections

comments powered by Disqus
↑ Back to top | Katy Perry Tabs for Self-inflicted. Lyrics for acoustic guitar and electric guitar. 1 Tablatures and chords are parodies/interpretations of the original songs. You may use it for private study, scholarship, research or language learning purposes only