>
 >
Downstairs To The Sun

Downstairs To The Sun Guitar Tabs

Katie Melua - Downstairs To The Sun chords, tabs, tablatures, lyrics

Guitar lessons | Add/correct | Request | Top 50 tabs Artists:  A B C D E F G H I J K L M N O P Q R S T U V W X Y Z 0-9

Downstairs To The Sun Guitar Tabs – Katie Melua

CD, Sheet music, Poster

Do you like Downstairs To The Sun? Share with your friends now
Tabs
  Thanks to whoever posted the intro on this site; thought I'd finish off the song:

 E------------------------|----------------------|
 B---------3p2---------0-2|-------5p4-----------4|
 G-------2-----2----------|-----4-----4-------4--|
 D-----2---------2---2----|---4---------4---4----|
 A---0-------------0------|-0-------------0------|
 E------------------------|----------------------|

 E-------------------0----|----------------------|
 B-------0-----0-------0--|-------3p2---------0-2|
 G-----2---2-----1-------2|-----2-----2----------|
 D---2-------2-----2------|---2---------2---2----|
 A-2----------------------|-0-------------0------|
 E------------------------|----------------------|

------------------------------------------------------

 E------------------------|----------------------|
 B---------3p2---------0-2|-------5p4-----------4|
 G-------2-----2----------|-----4-----4-------4--|
 D-----2---------2---2----|---4---------4---4----|
 A---0-------------0------|-0-------------0------|
 E------------------------|----------------------|                                      

 E-------------------0----|----------------------|
 B-------0-----0-------0--|-------3p2---------0-2|
 G-----2---2-----1-------2|-----2-----2----------|
 D---2-------2-----2------|---2---------2---2----|
 A-2----------------------|-0-------------0------|
 E------------------------|----------------------|         

 E------------------------|------------------------|
 B-------3p2-----------3p2|-------5p4-----------5p4|
 G-----2-----2-------2----|-----4-----4-------4----|
 D---2---------2---2------|---4---------4---4------|
 A-0-------------0--------|-0-------------0--------|
 E------------------------|------------------------|

 E-------------------0----|--------------------------|
 B-------0-----0-------0--|-------3h2-----------3p2--|
 G-----2---2-----1-------2|-----2-----2-------2----2-|
 D---2-------2-----2------|---2---------2---2--------|
 A-2----------------------|-0-------------0----------|
 E------------------------|--------------------------|

 E-------2-----------0-----------1-----0-----1-----|
 B-----3---3-------3---3-------3---3-----3-----3---|
 G---2-------2---2-------2---3-------3-----3-----3-|
 D-0-----------0-----------3-----------------------|
 A-------------------------------------------------|
 E-------------------------------------------------|

 E-------5-----------0-----------1-----0-----1-----|
 B-----3---3-------3---3-------3---3-----3-----3---|
 G---2-------2---2-------2---3-------3-----3-----3-|
 D-0-----------0-----------3-----------------------|
 A-------------------------------------------------|
 E-------------------------------------------------|

 E---------------------------------------------------|
 B-------3-----------3-5----------3-----------3-5----|
 G---------3-------5-----5----------3-------5-----5--|
 D-----5-----5---5--------------5-----5---5----------|
 A---5---------3--------------5---------3------------|
 E-3------------------------3------------------------|

 E---------------------------------------------------|
 B-------3-----------3-5----------1-----------1------|
 G---------3-------5-----5---------------------------|
 D-----5-----5---5------------2-------2---2-------2--|
 A---5---------3------------0-----------3------------|
 E-3-------------------------------------------------|
        

 E-------1-----0-----1-----|
 B-----3---3-----3-----3---|
 G---2-------2-----2-----2-|
 D-0-----------------------|
 A-------------------------|
 E-------------------------|

--------------------------------------------------------------

 E----------------------------|----------------------------|
 B-------3p2-----------3p2----|-------5p4-----------5p4----|
 G-----2-----2-------2-----2--|-----4-----4-------4-----4--|
 D---2---------2---2---------2|---4---------4---4---------4|
 A-0-------------0------------|-0-------------0------------|
 E----------------------------|----------------------------|


 E-------------------0----|---------------------------|
 B-------0-----0-------0--|-------3h2-----------3p2---|
 G-----2---2-----1-------2|-----2-----2-------2-----2-|
 D---2-------2-----2------|---2---------2---2---------|
 A-2----------------------|-0-------------0-----------|
 E------------------------|---------------------------|

 E--------------------------|---------------------------|
 B-------3p2-----------3p2--|-------5p4-----------5p4---|
 G-----2-----2-------2-----2|-----4-----4-------4-----4-|
 D---2---------2---2--------|---4---------4---4---------|
 A-0-------------0----------|-0-------------0-----------|
 E--------------------------|---------------------------|


 E-------------------0----|---------------------------|
 B-------0-----0-------0--|-------3h2-----------3p2---|
 G-----2---2-----1-------2|-----2-----2-------2-----2-|
 D---2-------2-----2------|---2---------2---2---------|
 A-2----------------------|-0-------------0-----------|
 E------------------------|---------------------------|

 E-------2-----------0-----------1-----0-----1-----|
 B-----3---3-------3---3-------3---3-----3-----3---|
 G---2-------2---2-------2---3-------3-----3-----3-|
 D-0-----------0-----------3-----------------------|
 A-------------------------------------------------|
 E-------------------------------------------------|

 E-------5-----------0-----------1-----0-----1-----|
 B-----3---3-------3---3-------3---3-----3-----3---|
 G---2-------2---2-------2---3-------3-----3-----3-|
 D-0-----------0-----------3-----------------------|
 A-------------------------------------------------|
 E-------------------------------------------------|

 E--------------------------------------------------|
 B-------3-----------3-5----------3-----------3-5---|
 G---------3-------5-----5----------3-------5-----5-|
 D-----5-----5---5--------------5-----5---5---------|
 A---5---------3--------------5---------3-----------|
 E-3------------------------3-----------------------|

 E--------------------------------------------------|
 B-------3-----------3-5----------1-----------1-----|
 G---------3-------5-----5--------------------------|
 D-----5-----5---5------------2-------2---2-------2-|
 A---5---------3------------0-----------3-----------|
 E-3------------------------------------------------|

 E-------1-----0-----1-----|
 B-----3---3-----3-----3---|
 G---2-------2-----2-----2-|
 D-0-----------------------|
 A-------------------------|
 E-------------------------|

------------------------------------------------------------

 E-------2-----------2-----------3-----------3-----|
 B-----3---3-------3---3-------1---1-------1---1---|
 G---2-------2---2-------2---0-------0---0-------0-|
 D-0-----------0-----------------------------------|
 A-------------------------3-----------3-----------|
 E-------------------------------------------------|

 E-------2-----------2-----------3-----------3-----|
 B-----3---3-------3---3-------1---1-------1---1---|
 G---2-------2---2-------2---0-------0---0-------0-|
 D-0-----------0-----------------------------------|
 A-------------------------3-----------3-----------|
 E-------------------------------------------------|

 E-------------------------------1-----------1-----|
 B-------2-----------2-----------------------------|
 G-----2---2-------2---2-------3---3-------3---3---|
 D---2-------2---2-------2---3-------3---3-------3-|
 A-0-----------0-----------1-----------1-----------|
 E-------------------------------------------------|

 E-------------------------------1-----------1-----|
 B-------2-----------2-----------------------------|
 G-----2---2-------2---2-------3---3-------3---3---|
 D---2-------2---2-------2---3-------3---3-------3-|
 A-0-----------0-----------1-----------1-----------|
 E-------------------------------------------------|

 E--------------------------------------------------|
 B-------3-----------3-5----------3-----------3-5---|
 G---------3-------5-----5----------3-------5-----5-|
 D-----5-----5---5--------------5-----5---5---------|
 A---5---------3--------------5---------3-----------|
 E-3------------------------3-----------------------|

 E--------------------------------------------------|
 B-------3-----------3-5----------1-----------1-----|
 G---------3-------5-----5--------------------------|
 D-----5-----5---5------------2-------2---2-------2-|
 A---5---------3------------0-----------3-----------|
 E-3------------------------------------------------|

 E-------1-----0-----1------------------------------|
 B-----3---3-----3-----3---------1-----------1------|
 G---2-------2-----2-----2--------------------------|
 D-0-------------------------2-------2---2-------2--|
 A-------------------------0-----------3------------|
 E--------------------------------------------------|

 E-------1-----0-----1------------------------------|
 B-----3---3-----3-----3---------1-----------1------|
 G---2-------2-----2-----2--------------------------|
 D-0-------------------------2-------2---2-------2--|
 A-------------------------0-----------3------------|
 E--------------------------------------------------|

 E-------1-----0-----1-------|
 B-----3---3-----3-----3-----|
 G---2-------2-----2-----2---|
 D-0-----------------------0-|
 A---------------------------|
 E---------------------------|





Comments


Popular Katie Melua tabs & chords
Shy Boy Bass Tabs
Closest Thing To Crazy 4 Chords
Love Is A Silent Thief Chords
Nine Million Bicycles Chords
The Flood Chords
Tiny Alien Chords
What I Miss About You Chords
Ghost Town Ukulele
Mary Pickford Ukulele
Moonshine Ukulele


Song lyrics



↑ Back to top | Tablatures and chords are parodies/interpretations of the original songs. You may use it for private study, scholarship, research or language learning purposes only
© 2014 AZChords.com Contact us | Privacy policy | DMCA | Add/correct tabs | Request tabs | Top 50 tabs