» » »

Katie Melua, Belfast Song Tabs (ver.1)

Artists:  A B C D E F G H I J K L M N O P Q R S T U V W X Y Z # 

Belfast Song Tabs (ver.1)

Katie Melua Tabs
 Rating:
3.6/5 (5 votes)
Belfast Song lessons Tabs too difficult? Try these video lessons and learn fast
                Tuning:  eb Bb Gb Db Ab Eb

Intro

e|------------------------------------------------------------------|   ---|
B|----------1---------------1---------------1--------------1--------|   ---|
G|-----0h2-----2h0-----2h0-----2h0-----0h2-----2h0----2h0-----0h2---|x2 ---|
D|--3---------------3-----------------------------------------------|   ---|
A|----------------------------------0---------------0---------------|   -0-|
E|------------------------------------------------------------------|   ---|

I've got a ticket...         
                                         
e|----------------------------------------------------------------------|
B|------1-------1--------1-------1--------1-------1--------1-------1----|
G|----2---2---2---2----0---0---0---0----2---2---2---2----0---0---0---0--|
D|--3-------3-------------------------0-------0-------------------------|
A|-------------------3-------3-------------------------3-------3--------|
E|----------------------------------------------------------------------|

Getting off the plane...

e|----------------------------------------------------------------------|
B|------1-------1--------1-------1--------1-------1--------0-------0----|
G|----2---2---2---2----0---0---0---0----2---2---2---2----0---0---0---0--|
D|--3-------3-------------------------0-------0--------0-------0--------|
A|-------------------3-------0------------------------------------------|
E|----------------------------------------------------------------------|

Chorus:
And I'm divided...

e|------------------------------------|
B|------1-------1--------1-------1----|
G|----2---2---2---2----2---2---2---2--|
D|--3-------3-------------------------|
A|-------------------0-------0--------|
E|------------------------------------|

but its not about...

e|----------------------------------------------------------------------|
B|------1-------1--------1-------1--------1-------1--------0-------0----|
G|----2---2---2---2----0---0---0---0----2---2---2---2----0---0---0---0--|
D|--3-------3-------------------------0-------0--------0-------0--------|
A|-------------------3-------0------------------------------------------|
E|----------------------------------------------------------------------|

its about being able to fly... 

e|------------------------------------|
B|------1-------1--------1-------1----|
G|----2---2---2---2----2---2---2---2--|
D|--3-------3-------------------------|
A|-------------------0-------0--------|
E|------------------------------------|

its about dying nine times.

e|----------------------------------------------------|
B|------1-------1--------1-------1--------1-------1---|
G|----2---2---2---2----0---0---0---0----2---2---2---2-|
D|--3-------3-------------------------0-------0-------|
A|-------------------3-------0------------------------|
E|----------------------------------------------------|

e|------------------------------------------------------------------|   ---|
B|----------1---------------1---------------1--------------1--------|   ---|
G|-----0h2-----2h0-----2h0-----2h0-----0h2-----2h0----2h0-----0h2---|x2 ---|
D|--3---------------3-----------------------------------------------|   ---|
A|----------------------------------0---------------0---------------|   -0-|
E|------------------------------------------------------------------|   ---|

Walked on broadway...
e|----------------------------------------------------------------------|
B|------1-------1--------1-------1--------1-------1--------1-------1----|
G|----2---2---2---2----0---0---0---0----2---2---2---2----0---0---0---0--|
D|--3-------3-------------------------0-------0-------------------------|
A|-------------------3-------3-------------------------3-------3--------|
E|----------------------------------------------------------------------|


the paintings on the walls of release...

e|----------------------------------------------------------------------|
B|------1-------1--------1-------1--------1-------1--------0-------0----|
G|----2---2---2---2----0---0---0---0----2---2---2---2----0---0---0---0--|
D|--3-------3-------------------------0-------0--------0-------0--------|
A|-------------------3-------0------------------------------------------|
E|----------------------------------------------------------------------|


Chorus...
            
Submit corrections

comments powered by Disqus
↑ Back to top | Katie Melua Tabs for Belfast Song. Lyrics for acoustic guitar and electric guitar. Tablatures and chords are parodies/interpretations of the original songs. You may use it for private study, scholarship, research or language learning purposes only