» » »

Sweet Silver Lining Tabs (ver.1)

Artists:  A B C D E F G H I J K L M N O P Q R S T U V W X Y Z # 

Sweet Silver Lining Tabs (ver.1)

Kate Voegele
Rating:
0/5 (0 votes)

Hard to play? Try these video lessons and learn fast.
                (Intro)
this is just the intro of the song


E|-3------3------------1---8--7--5---|
B|---3------3--------0-----8--7--5---|
G|-----0------0----2-----------------|
D|-----------------------------------|
A|-----------------------------------|
E|-----------------------------------|

Play this 4 times and then the intro is done and Kate starts to sing.

Maybe people find this better or easier to play ,
it's the same intro (it's only written a bit different)
so also repeat it 4 times.

E|-3-3-0-8--7--5--|
B|-3-3-1-8--7--5--|
G|-0-0-0----------|
D|-0-0-2----------|
A|-2-2-3----------|
E|-3-3-0----------|

Good luck and have fun playing
            
Hard to play? Try these video lessons and learn fast. | Correct




comments powered by Disqus
↑ Back to top | Tablatures and chords are parodies/interpretations of the original songs. You may use it for private study, scholarship, research or language learning purposes only