» » »

Kate Rusby, Game Of All Fours Tabs (ver.1)

Artists:  A B C D E F G H I J K L M N O P Q R S T U V W X Y Z # 

Game Of All Fours Tabs (ver.1)

Kate Rusby Tabs
 Rating:
4/5 (4 votes)
Game Of All Fours lessons Tabs too difficult? Try these video lessons and learn fast
                -------------------------------------------------------------------------------
-------------------------------------------------------------------------------


Tuning: DADGBd
Time Signature: 3/4
Notes: Played with Capo on 5th fret



    D                Asus             D                Asus

  d|-------0--------|----------------|-------0--------|----------------|
  B|----------------|----------------|----------------|----------------|
  G|-----2----------|-----0----2-----|-----2----------|-----0----2-----|
  D|4---------------|4---------------|4---------------|4---------------|
  A|----------------|----------------|----------------|----------------|
  D|----------------|----------------|----------------|----------------|
    ^    ^    ^      ^    ^    ^      ^    ^    ^      ^    ^    ^     


    D                Asus             D                Asus

  d|-------0--------|----------------|-------0--------|----------------|
  B|----------------|----------------|----------------|----------------|
  G|-----2----------|-----0----2-----|-----2----------|-----0----2-----|
  D|4---------------|4---------------|4---------------|4---------------|
  A|----------------|----------------|----------------|----------------|
  D|----------------|----------------|----------------|----------------|
    ^    ^    ^      ^    ^    ^      ^    ^    ^      ^    ^    ^     



    D                                 Asus             D

  d|0---------------|----------------|0---------------|0---------------|
  B|3---------------|----------------|3---------------|3---------------|
  G|2---------------|----------------|0---------------|2---------------|
  D|0---------------|----------------|2---------------|0---------------|
  A|0---------------|----------------|0---------------|0---------------|
  D|0---------------|----------------|0---------------|0---------------|
    ^    ^    ^      ^    ^    ^      ^    ^    ^      ^    ^    ^      
 As I    was  a      walk-ing  one    mid- sum  -mers  mor -ning to
    

    D                                 G                Asus

  d|0---------------|----------------|0---------------|0---------------|
  B|3---------------|----------------|0---------------|3---------------|
  G|2---------------|----------------|0---------------|0---------------|
  D|0---------------|----------------|0---------------|2---------------|
  A|0---------------|----------------|5---------------|0---------------|
  D|0---------------|----------------|5---------------|0---------------|
    ^    ^    ^      ^    ^    ^      ^    ^    ^      ^    ^    ^         
    Hear the  birds  whistle and the  nightingales     play      it was
 

                     D

  d|----------------|0---------------|----------------|----------------|
  B|----------------|3---------------|----------------|----------------|
  G|----------------|0---------------|----------------|----------------|
  D|----------------|2---------------|----------------|----------------|
  A|----------------|0---------------|----------------|----------------|
  D|----------------|0---------------|----------------|----------------|
    ^    ^    ^      ^    ^    ^      ^    ^    ^      ^    ^    ^     
              It was there that I     met       a      beautiful        


    Asus             D                Em               Asus             

  d|----------------|----------------|----------------|----------------|
  B|----------------|----------------|----------------|----------------|
  G|----------------|----------------|----------------|----------------|
  D|----------------|----------------|----------------|----------------|
  A|----------------|----------------|----------------|----------------|
  D|----------------|----------------|----------------|----------------|
    ^    ^     ^     ^    ^    ^      ^    ^    ^      ^    ^    ^     
    mai - den  As    I    was  a      walking   a  -   long the  high - way



    Oh where are you going my fair pretty lady,
    Where are you going so early this morn,
    She answered, kind sir to visit my neighbours,
    I'm going down to Lincoln the place I was born.

    Oh may I go with you my fair pretty lady,
    May I go along in your sweet company,
    She turned her head round and smiling all at me,
    Said you may come with me kind sir if you please.

    We hadn't been walking a few miles together,
    Before this young damsel began to show free,
    She sat herself down saying sit down beside me,
    The game we shall play will be one, two and three.

    I said my dear lady if you're fond of the gaming,
    There's one game I know I would like you to learn,
    The game it is called The Game Of All Fours,
    So I took out my pack and began the first turn.

    She cut the cards and I fell a dealing,
    I dealt her a trump and myself the poor Jack,
    She led off here ace and stole the Jack from me,
    Saying Jack is the card I like best in your pack.

    I dealt the last time, its your turn to shuffle,
    My turn to show the best card in the pack,
    Once more she'd the ace and stole the Jack from me,
    Once more I lost when I laid down poor Jack.

    So I took up my hat and I bid her good morning,
    I said you're the best that I know at this game,
    She answered, young man, come back tomorrow,
    We'll play the game over and over and over and over and over again





| /  slide up
| \  slide down
| h  hammer-on
| p  pull-off
| ~  vibrato
| +  harmonic
| x  Mute note
===============================================================================
            
Submit corrections

comments powered by Disqus
↑ Back to top | Kate Rusby Tabs for Game Of All Fours. Lyrics for acoustic guitar and electric guitar. Tablatures and chords are parodies/interpretations of the original songs. You may use it for private study, scholarship, research or language learning purposes only